0
SECTION
2
HEADER
9
$INSUNITS
70
4
9
$ACADVER
1
AC1014
9
$HANDSEED
5
FFFF
0
ENDSEC
0
SECTION
2
TABLES
0
TABLE
2
VPORT
5
8
100
AcDbSymbolTable
0
ENDTAB
0
TABLE
2
LTYPE
5
5
100
AcDbSymbolTable
0
LTYPE
5
14
100
AcDbSymbolTableRecord
100
AcDbLinetypeTableRecord
2
BYBLOCK
70
0
0
LTYPE
5
15
100
AcDbSymbolTableRecord
100
AcDbLinetypeTableRecord
2
BYLAYER
70
0
0
LTYPE
5
16
100
AcDbSymbolTableRecord
100
AcDbLinetypeTableRecord
2
DASHED
70
0
3
Dashed __ __ __ __ __ __ __ __ __ __ __ __ __ _
72
65
73
2
40
0.75
49
0.5
74
0
49
-0.25
74
0
0
ENDTAB
0
TABLE
2
LAYER
5
2
100
AcDbSymbolTable
70
2
0
LAYER
5
50
100
AcDbSymbolTableRecord
100
AcDbLayerTableRecord
2
0
70
0
62
7
6
CONTINUOUS
0
ENDTAB
0
TABLE
2
STYLE
5
3
100
AcDbSymbolTable
70
1
0
STYLE
5
11
100
AcDbSymbolTableRecord
100
AcDbTextStyleTableRecord
2
STANDARD
70
0
0
ENDTAB
0
TABLE
2
VIEW
5
6
100
AcDbSymbolTable
70
0
0
ENDTAB
0
TABLE
2
UCS
5
7
100
AcDbSymbolTable
70
0
0
ENDTAB
0
TABLE
2
APPID
5
9
100
AcDbSymbolTable
70
2
0
APPID
5
12
100
AcDbSymbolTableRecord
100
AcDbRegAppTableRecord
2
ACAD
70
0
0
ENDTAB
0
TABLE
2
DIMSTYLE
5
A
100
AcDbSymbolTable
70
1
0
ENDTAB
0
TABLE
2
BLOCK_RECORD
5
1
100
AcDbSymbolTable
70
1
0
BLOCK_RECORD
5
1F
100
AcDbSymbolTableRecord
100
AcDbBlockTableRecord
2
*MODEL_SPACE
0
BLOCK_RECORD
5
1B
100
AcDbSymbolTableRecord
100
AcDbBlockTableRecord
2
*PAPER_SPACE
0
ENDTAB
0
ENDSEC
0
SECTION
2
BLOCKS
0
BLOCK
5
20
100
AcDbEntity
100
AcDbBlockBegin
2
*MODEL_SPACE
0
ENDBLK
5
21
100
AcDbEntity
100
AcDbBlockEnd
0
BLOCK
5
1C
100
AcDbEntity
100
AcDbBlockBegin
2
*PAPER_SPACE
0
ENDBLK
5
1D
100
AcDbEntity
100
AcDbBlockEnd
0
ENDSEC
0
SECTION
2
ENTITIES
0
SPLINE
5
100
100
AcDbEntity
8
0
100
AcDbSpline
70
0
71
3
72
11
73
7
74
0
42
0.000000001
43
0.0000000001
44
0.0000000001
40
0
40
0
40
0
40
0
40
1
40
1
40
1
40
2
40
2
40
2
40
2
10
201.51503575790912
20
-38.100233354084523
30
0
10
201.51503577273419
20
-49.719424312799575
30
0
10
192.47685892356452
20
-59.509897284498152
30
0
10
180.86928409110129
20
-60.029324896252788
30
0
10
168.468773349164
20
-60.584235613795634
30
0
10
158.23977015428562
20
-50.693977689424905
30
0
10
158.23977015428562
20
-38.412168705132203
30
0
0
LINE
5
101
100
AcDbEntity
8
0
100
AcDbLine
10
158.23977015428562
20
-38.412168705132203
30
0
11
158.23977015428562
21
49.298928820683088
31
0
0
SPLINE
5
102
100
AcDbEntity
8
0
100
AcDbSpline
70
0
71
3
72
13
73
9
74
0
42
0.000000001
43
0.0000000001
44
0.0000000001
40
3
40
3
40
3
40
3
40
4
40
4
40
4
40
5
40
5
40
6
40
6
40
6
40
6
10
158.23977015428562
20
49.298928820683088
30
0
10
158.23977015428562
20
61.251041651353901
30
0
10
167.92703414925961
20
70.938348710021486
30
0
10
179.87561575705811
20
70.938348710021486
30
0
10
185.85165064054672
20
70.938348710021486
30
0
10
191.26329275616433
20
68.51825525902062
30
0
10
199.09494219539562
20
60.686605819789285
30
0
10
201.51503564639651
20
55.275006767865293
30
0
10
201.51503564639651
20
49.298928820683088
30
0
0
LINE
5
103
100
AcDbEntity
8
0
100
AcDbLine
10
201.51503564639651
20
49.298928820683088
30
0
11
201.51503575790912
21
-38.100233354084523
31
0
0
SPLINE
5
104
100
AcDbEntity
8
0
100
AcDbSpline
70
0
71
3
72
11
73
7
74
0
42
0.000000001
43
0.0000000001
44
0.0000000001
40
0
40
0
40
0
40
0
40
1
40
1
40
1
40
2
40
2
40
2
40
2
10
201.51503564639651
20
-349.32936629992895
30
0
10
201.51503564639651
20
-361.60446954771368
30
0
10
191.29096608826819
20
-371.49309453400315
30
0
10
178.89070488073503
20
-370.94339418948834
30
0
10
167.28164528189521
20
-370.4287676058899
30
0
10
158.23977008345491
20
-360.63862148338274
30
0
10
158.2397700850116
20
-349.01816085180877
30
0
0
LINE
5
105
100
AcDbEntity
8
0
100
AcDbLine
10
158.2397700850116
20
-349.01816085180877
30
0
11
158.23977009667968
21
-261.92482587150823
31
0
0
SPLINE
5
106
100
AcDbEntity
8
0
100
AcDbSpline
70
0
71
3
72
14
73
10
74
0
42
0.000000001
43
0.0000000001
44
0.0000000001
40
3
40
3
40
3
40
3
40
4
40
4
40
4
40
5
40
5
40
5
40
6
40
6
40
6
40
6
10
158.23977009667968
20
-261.92482587150823
30
0
10
158.23977009824731
20
-250.21933017727193
30
0
10
167.41398959110782
20
-240.39380160311055
30
0
10
179.11258606150992
20
-239.99196821662881
30
0
10
185.3901117585028
20
-239.77634240066604
30
0
10
191.09728234681282
20
-242.2328888627311
30
0
10
195.17911747577995
20
-246.31472399169823
30
0
10
199.09494219539562
20
-250.23054871131393
30
0
10
201.51503564639651
20
-255.64214776323794
30
0
10
201.51503564639651
20
-261.61469448754769
30
0
0
LINE
5
107
100
AcDbEntity
8
0
100
AcDbLine
10
201.51503564639651
20
-261.61469448754769
30
0
11
201.51503564639651
21
-349.32936629992895
31
0
0
SPLINE
5
108
100
AcDbEntity
8
0
100
AcDbSpline
70
0
71
3
72
17
73
13
74
0
42
0.000000001
43
0.0000000001
44
0.0000000001
40
0
40
0
40
0
40
0
40
1
40
1
40
1
40
2
40
2
40
2
40
3
40
3
40
3
40
4
40
4
40
4
40
4
10
0.66298094370083138
20
334.25104195961814
30
0
10
-10.397154152903019
20
333.89872188045138
30
0
10
-19.432111769435569
20
342.93369959926002
30
0
10
-19.079758626605827
20
353.99384183846473
30
0
10
-18.76067605726179
20
364.00964182439139
30
0
10
-10.60305732566256
20
372.16724287483032
30
0
10
-0.58725747759205449
20
372.48632977135833
30
0
10
10.472943164474948
20
372.83868955803439
30
0
10
19.507936338833069
20
363.80364039214447
30
0
10
19.155524380508357
20
352.74345245600466
30
0
10
18.836390345081828
20
342.72766744855625
30
0
10
10.67876855071982
20
334.57009439901435
30
0
10
0.66298094370083138
20
334.25104195961814
30
0
0
SPLINE
5
109
100
AcDbEntity
8
0
100
AcDbSpline
70
0
71
3
72
11
73
7
74
0
42
0.000000001
43
0.0000000001
44
0.0000000001
40
0
40
0
40
0
40
0
40
1
40
1
40
1
40
2
40
2
40
2
40
2
10
-161.0972615408329
20
-38.412168705132203
30
0
10
-161.0972615408329
20
-50.693979544522286
30
0
10
-171.3262905617525
20
-60.584238601530316
30
0
10
-183.72680256127967
20
-60.029324526984517
30
0
10
-195.33436304164559
20
-59.509894467811549
30
0
10
-204.37252709582251
20
-49.719432584037108
30
0
10
-204.37252709287782
20
-38.100255853660933
30
0
0
LINE
5
110
100
AcDbEntity
8
0
100
AcDbLine
10
-204.37252709287782
20
-38.100255853660933
30
0
11
-204.37252707080589
21
48.98856848984547
31
0
0
SPLINE
5
111
100
AcDbEntity
8
0
100
AcDbSpline
70
0
71
3
72
11
73
7
74
0
42
0.000000001
43
0.0000000001
44
0.0000000001
40
3
40
3
40
3
40
3
40
4
40
4
40
4
40
5
40
5
40
5
40
5
10
-204.37252707080589
20
48.988568489845463
30
0
10
-204.37252706783767
20
60.700145845444851
30
0
10
-195.19041898620731
20
70.529139500055592
30
0
10
-183.48555376552707
20
70.92559166854646
30
0
10
-177.21186734333631
20
71.138085921117082
30
0
10
-171.51268995136132
20
68.681962311163716
30
0
10
-167.43315817960257
20
64.602430539404935
30
0
0
SPLINE
5
112
100
AcDbEntity
8
0
100
AcDbSpline
70
0
71
3
72
8
73
4
74
0
42
0.000000001
43
0.0000000001
44
0.0000000001
40
5
40
5
40
5
40
5
40
6
40
6
40
6
40
6
10
-167.43315817960257
20
64.602430539404935
30
0
10
-163.52084315101249
20
60.686605819789285
30
0
10
-161.0972615408329
20
55.275006767865293
30
0
10
-161.0972615408329
20
49.298928820683088
30
0
0
LINE
5
113
100
AcDbEntity
8
0
100
AcDbLine
10
-161.0972615408329
20
49.298928820683088
30
0
11
-161.0972615408329
21
-38.412168705132203
31
0
0
SPLINE
5
114
100
AcDbEntity
8
0
100
AcDbSpline
70
0
71
3
72
11
73
7
74
0
42
0.000000001
43
0.0000000001
44
0.0000000001
40
0
40
0
40
0
40
0
40
1
40
1
40
1
40
2
40
2
40
2
40
2
10
-161.09726141490421
20
-349.01813838977876
30
0
10
-161.09726139816161
20
-360.6386132359716
30
0
10
-170.13914938039392
20
-370.42877043610929
30
0
10
-181.74822331638521
20
-370.94339457047533
30
0
10
-194.14848327007343
20
-371.4930915643759
30
0
10
-204.37252703294371
20
-361.60446770456144
30
0
10
-204.37252703294371
20
-349.32936629992895
30
0
0
LINE
5
115
100
AcDbEntity
8
0
100
AcDbLine
10
-204.37252703294371
20
-349.32936629992895
30
0
11
-204.37252703294371
21
-261.61469448754769
31
0
0
SPLINE
5
116
100
AcDbEntity
8
0
100
AcDbSpline
70
0
71
3
72
11
73
7
74
0
42
0.000000001
43
0.0000000001
44
0.0000000001
40
3
40
3
40
3
40
3
40
4
40
4
40
4
40
5
40
5
40
5
40
5
10
-204.37252703294371
20
-261.61469448754769
30
0
10
-204.37252703294371
20
-249.66611287974931
30
0
10
-194.68524150612294
20
-239.97884888477523
30
0
10
-182.73312867545212
20
-239.97884888477523
30
0
10
-176.7570722601167
20
-239.97884888477523
30
0
10
-171.34898289921819
20
-242.39889927208259
30
0
10
-167.43315817960257
20
-246.31472399169823
30
0
0
SPLINE
5
117
100
AcDbEntity
8
0
100
AcDbSpline
70
0
71
3
72
8
73
4
74
0
42
0.000000001
43
0.0000000001
44
0.0000000001
40
5
40
5
40
5
40
5
40
6
40
6
40
6
40
6
10
-167.43315817960257
20
-246.31472399169823
30
0
10
-163.52084315101249
20
-250.23054871131393
30
0
10
-161.0972615408329
20
-255.64214776323794
30
0
10
-161.0972615408329
20
-261.61469448754769
30
0
0
LINE
5
118
100
AcDbEntity
8
0
100
AcDbLine
10
-161.0972615408329
20
-261.61469448754769
30
0
11
-161.09726141490421
21
-349.01813838977876
31
0
0
SPLINE
5
119
100
AcDbEntity
8
0
100
AcDbSpline
70
0
71
3
72
8
73
4
74
0
42
0.000000001
43
0.0000000001
44
0.0000000001
40
0
40
0
40
0
40
0
40
1
40
1
40
1
40
1
10
179.1947787617855
20
91.946239533220051
30
0
10
179.19472879433943
20
91.946237729242952
30
0
10
177.53320920924961
20
91.886251808083145
30
0
10
174.69686209624339
20
91.688718645697648
30
0
0
SPLINE
5
120
100
AcDbEntity
8
0
100
AcDbSpline
70
0
71
3
72
8
73
4
74
0
42
0.000000001
43
0.0000000001
44
0.0000000001
40
1
40
1
40
1
40
1
40
2
40
2
40
2
40
2
10
174.69686209624339
20
91.688718645697648
30
0
10
164.0817477597044
20
90.937300256671065
30
0
10
112.12595013613762
20
88.20680370244915
30
0
10
93.855618312905705
20
79.136900818431926
30
0
0
SPLINE
5
121
100
AcDbEntity
8
0
100
AcDbSpline
70
0
71
3
72
8
73
4
74
0
42
0.000000001
43
0.0000000001
44
0.0000000001
40
2
40
2
40
2
40
2
40
3
40
3
40
3
40
3
10
93.855618312905705
20
79.136900818431926
30
0
10
89.957449707651932
20
79.136900818431926
30
0
10
86.800062759114013
20
82.297775926148645
30
0
10
86.800062759114013
20
86.192456372223603
30
0
0
LINE
5
122
100
AcDbEntity
8
0
100
AcDbLine
10
86.800062759114013
20
86.192456372223603
30
0
11
86.800062759114013
21
117.2368792770601
31
0
0
SPLINE
5
123
100
AcDbEntity
8
0
100
AcDbSpline
70
0
71
3
72
8
73
4
74
0
42
0.000000001
43
0.0000000001
44
0.0000000001
40
4
40
4
40
4
40
4
40
5
40
5
40
5
40
5
10
86.800062759114013
20
117.2368792770601
30
0
10
86.800062759114013
20
121.1335550110031
30
0
10
89.958942578962706
20
124.2924348308518
30
0
10
93.855618312905705
20
124.2924348308518
30
0
0
LINE
5
124
100
AcDbEntity
8
0
100
AcDbLine
10
93.855618312905705
20
124.2924348308518
30
0
11
122.95873669035072
21
124.2924348308518
31
0
0
SPLINE
5
125
100
AcDbEntity
8
0
100
AcDbSpline
70
0
71
3
72
8
73
4
74
0
42
0.000000001
43
0.0000000001
44
0.0000000001
40
6
40
6
40
6
40
6
40
7
40
7
40
7
40
7
10
122.95873669035072
20
124.2924348308518
30
0
10
124.8102366141061
20
124.2924348308518
30
0
10
126.31117386034731
20
125.79337207709342
30
0
10
126.31117386034731
20
127.64487200084851
30
0
0
LINE
5
126
100
AcDbEntity
8
0
100
AcDbLine
10
126.31117386034731
20
127.64487200084851
30
0
11
126.31117386034731
21
156.4117989011734
31
0
0
SPLINE
5
127
100
AcDbEntity
8
0
100
AcDbSpline
70
0
71
3
72
8
73
4
74
0
42
0.000000001
43
0.0000000001
44
0.0000000001
40
8
40
8
40
8
40
8
40
9
40
9
40
9
40
9
10
126.31117386034731
20
156.4117989011734
30
0
10
126.31117386034731
20
158.26329882492848
30
0
10
124.8102366141061
20
159.76423607116999
30
0
10
122.95873669035072
20
159.76423607116999
30
0
0
LINE
5
128
100
AcDbEntity
8
0
100
AcDbLine
10
122.95873669035072
20
159.76423607116999
30
0
11
93.855618312905705
21
159.76423607116999
31
0
0
SPLINE
5
129
100
AcDbEntity
8
0
100
AcDbSpline
70
0
71
3
72
8
73
4
74
0
42
0.000000001
43
0.0000000001
44
0.0000000001
40
10
40
10
40
10
40
10
40
11
40
11
40
11
40
11
10
93.855618312905705
20
159.76423607116999
30
0
10
89.958942578962706
20
159.76423607116999
30
0
10
86.800062759114013
20
162.92311589101868
30
0
10
86.800062759114013
20
166.81979162496168
30
0
0
LINE
5
130
100
AcDbEntity
8
0
100
AcDbLine
10
86.800062759114013
20
166.81979162496168
30
0
11
86.800062759114013
21
197.86423606164504
31
0
0
SPLINE
5
131
100
AcDbEntity
8
0
100
AcDbSpline
70
0
71
3
72
8
73
4
74
0
42
0.000000001
43
0.0000000001
44
0.0000000001
40
12
40
12
40
12
40
12
40
13
40
13
40
13
40
13
10
86.800062759114013
20
197.86423606164504
30
0
10
86.800062759114013
20
201.76091179558799
30
0
10
89.958942578962706
20
204.91979161543671
30
0
10
93.855618312905705
20
204.91979161543671
30
0
0
LINE
5
132
100
AcDbEntity
8
0
100
AcDbLine
10
93.855618312905705
20
204.91979161543671
30
0
11
122.95873669035072
21
204.91979161543671
31
0
0
SPLINE
5
133
100
AcDbEntity
8
0
100
AcDbSpline
70
0
71
3
72
8
73
4
74
0
42
0.000000001
43
0.0000000001
44
0.0000000001
40
14
40
14
40
14
40
14
40
15
40
15
40
15
40
15
10
122.95873669035072
20
204.91979161543671
30
0
10
124.8102366141061
20
204.91979161543671
30
0
10
126.31117386034731
20
206.42072886167836
30
0
10
126.31117386034731
20
208.27222878543338
30
0
0
LINE
5
134
100
AcDbEntity
8
0
100
AcDbLine
10
126.31117386034731
20
208.27222878543338
30
0
11
126.31117386034731
21
237.03917721760513
31
0
0
SPLINE
5
135
100
AcDbEntity
8
0
100
AcDbSpline
70
0
71
3
72
8
73
4
74
0
42
0.000000001
43
0.0000000001
44
0.0000000001
40
16
40
16
40
16
40
16
40
17
40
17
40
17
40
17
10
126.31117386034731
20
237.03917721760513
30
0
10
126.31117386034731
20
238.89067714136019
30
0
10
124.8102366141061
20
240.39161438760172
30
0
10
122.95873669035072
20
240.39161438760172
30
0
0
LINE
5
136
100
AcDbEntity
8
0
100
AcDbLine
10
122.95873669035072
20
240.39161438760172
30
0
11
93.855618312905705
21
240.39161438760172
31
0
0
SPLINE
5
137
100
AcDbEntity
8
0
100
AcDbSpline
70
0
71
3
72
8
73
4
74
0
42
0.000000001
43
0.0000000001
44
0.0000000001
40
18
40
18
40
18
40
18
40
19
40
19
40
19
40
19
10
93.855618312905705
20
240.39161438760172
30
0
10
89.958942578962706
20
240.39161438760172
30
0
10
86.800062759114013
20
243.55049420745044
30
0
10
86.800062759114013
20
247.44716994139353
30
0
0
LINE
5
138
100
AcDbEntity
8
0
100
AcDbLine
10
86.800062759114013
20
247.44716994139353
30
0
11
86.800062759114013
21
278.4916143780768
31
0
0
SPLINE
5
139
100
AcDbEntity
8
0
100
AcDbSpline
70
0
71
3
72
8
73
4
74
0
42
0.000000001
43
0.0000000001
44
0.0000000001
40
20
40
20
40
20
40
20
40
21
40
21
40
21
40
21
10
86.800062759114013
20
278.4916143780768
30
0
10
86.800062759114013
20
282.38829011201983
30
0
10
89.958942578962706
20
285.54716993186838
30
0
10
93.855618312905705
20
285.54716993186838
30
0
0
LINE
5
140
100
AcDbEntity
8
0
100
AcDbLine
10
93.855618312905705
20
285.54716993186838
30
0
11
122.95873669035072
21
285.54716993186838
31
0
0
SPLINE
5
141
100
AcDbEntity
8
0
100
AcDbSpline
70
0
71
3
72
8
73
4
74
0
42
0.000000001
43
0.0000000001
44
0.0000000001
40
22
40
22
40
22
40
22
40
23
40
23
40
23
40
23
10
122.95873669035072
20
285.54716993186838
30
0
10
124.8102366141061
20
285.54716993186838
30
0
10
126.31117386034731
20
287.04810717811
30
0
10
126.31117386034731
20
288.89960710186517
30
0
0
LINE
5
142
100
AcDbEntity
8
0
100
AcDbLine
10
126.31117386034731
20
288.89960710186517
30
0
11
126.31117386034731
21
317.66653400219002
31
0
0
SPLINE
5
143
100
AcDbEntity
8
0
100
AcDbSpline
70
0
71
3
72
8
73
4
74
0
42
0.000000001
43
0.0000000001
44
0.0000000001
40
24
40
24
40
24
40
24
40
25
40
25
40
25
40
25
10
126.31117386034731
20
317.66653400219002
30
0
10
126.31117386034731
20
319.51803392594513
30
0
10
124.8102366141061
20
321.0189711721867
30
0
10
122.95873669035072
20
321.0189711721867
30
0
0
LINE
5
144
100
AcDbEntity
8
0
100
AcDbLine
10
122.95873669035072
20
321.0189711721867
30
0
11
93.855618312905705
21
321.0189711721867
31
0
0
SPLINE
5
145
100
AcDbEntity
8
0
100
AcDbSpline
70
0
71
3
72
8
73
4
74
0
42
0.000000001
43
0.0000000001
44
0.0000000001
40
26
40
26
40
26
40
26
40
27
40
27
40
27
40
27
10
93.855618312905705
20
321.0189711721867
30
0
10
89.958942578962706
20
321.0189711721867
30
0
10
86.800062759114013
20
324.17785099203536
30
0
10
86.800062759114013
20
328.07452672597833
30
0
0
LINE
5
146
100
AcDbEntity
8
0
100
AcDbLine
10
86.800062759114013
20
328.07452672597833
30
0
11
86.800062759114013
21
359.11897116266169
31
0
0
SPLINE
5
147
100
AcDbEntity
8
0
100
AcDbSpline
70
0
71
3
72
8
73
4
74
0
42
0.000000001
43
0.0000000001
44
0.0000000001
40
28
40
28
40
28
40
28
40
29
40
29
40
29
40
29
10
86.800062759114013
20
359.11897116266169
30
0
10
86.800062759114013
20
363.01564689660466
30
0
10
89.958942578962706
20
366.17452671645333
30
0
10
93.855618312905705
20
366.17452671645333
30
0
0
LINE
5
148
100
AcDbEntity
8
0
100
AcDbLine
10
93.855618312905705
20
366.17452671645333
30
0
11
122.05202241971611
21
366.17452671645333
31
0
0
SPLINE
5
149
100
AcDbEntity
8
0
100
AcDbSpline
70
0
71
3
72
8
73
4
74
0
42
0.000000001
43
0.0000000001
44
0.0000000001
40
30
40
30
40
30
40
30
40
31
40
31
40
31
40
31
10
122.05202241971611
20
366.17452671645333
30
0
10
124.40428680759659
20
366.17452671645333
30
0
10
126.31117386034731
20
368.08141376920412
30
0
10
126.31117386034731
20
370.4336781570845
30
0
0
LINE
5
150
100
AcDbEntity
8
0
100
AcDbLine
10
126.31117386034731
20
370.4336781570845
30
0
11
126.31117386034731
21
400.45153796878037
31
0
0
SPLINE
5
151
100
AcDbEntity
8
0
100
AcDbSpline
70
0
71
3
72
8
73
4
74
0
42
0.000000001
43
0.0000000001
44
0.0000000001
40
32
40
32
40
32
40
32
40
33
40
33
40
33
40
33
10
126.31117386034731
20
400.45153796878037
30
0
10
126.31117386034731
20
402.96427347256218
30
0
10
124.27419926521452
20
405.00124806769509
30
0
10
121.76146376143272
20
405.00124806769509
30
0
0
LINE
5
152
100
AcDbEntity
8
0
100
AcDbLine
10
121.76146376143272
20
405.00124806769509
30
0
11
-121.68567325570471
21
405.00124806769509
31
0
0
SPLINE
5
153
100
AcDbEntity
8
0
100
AcDbSpline
70
0
71
3
72
8
73
4
74
0
42
0.000000001
43
0.0000000001
44
0.0000000001
40
34
40
34
40
34
40
34
40
35
40
35
40
35
40
35
10
-121.68567325570471
20
405.00124806769509
30
0
10
-124.19840875948651
20
405.00124806769509
30
0
10
-126.2353833546193
20
402.96427347256218
30
0
10
-126.2353833546193
20
400.45153796878037
30
0
0
LINE
5
154
100
AcDbEntity
8
0
100
AcDbLine
10
-126.2353833546193
20
400.45153796878037
30
0
11
-126.2353833546193
21
370.4336781570845
31
0
0
SPLINE
5
155
100
AcDbEntity
8
0
100
AcDbSpline
70
0
71
3
72
8
73
4
74
0
42
0.000000001
43
0.0000000001
44
0.0000000001
40
36
40
36
40
36
40
36
40
37
40
37
40
37
40
37
10
-126.2353833546193
20
370.4336781570845
30
0
10
-126.2353833546193
20
368.08141376920412
30
0
10
-124.3284963018686
20
366.17452671645333
30
0
10
-121.9762319139881
20
366.17452671645333
30
0
0
LINE
5
156
100
AcDbEntity
8
0
100
AcDbLine
10
-121.9762319139881
20
366.17452671645333
30
0
11
-93.779827807177639
21
366.17452671645333
31
0
0
SPLINE
5
157
100
AcDbEntity
8
0
100
AcDbSpline
70
0
71
3
72
8
73
4
74
0
42
0.000000001
43
0.0000000001
44
0.0000000001
40
38
40
38
40
38
40
38
40
39
40
39
40
39
40
39
10
-93.779827807177639
20
366.17452671645333
30
0
10
-89.881637670077112
20
366.17452671645333
30
0
10
-86.724272253385976
20
363.01363007688985
30
0
10
-86.724272253385976
20
359.11897116266169
30
0
0
LINE
5
158
100
AcDbEntity
8
0
100
AcDbLine
10
-86.724272253385976
20
359.11897116266169
30
0
11
-86.724272253385976
21
328.07452672597833
31
0
0
SPLINE
5
159
100
AcDbEntity
8
0
100
AcDbSpline
70
0
71
3
72
8
73
4
74
0
42
0.000000001
43
0.0000000001
44
0.0000000001
40
40
40
40
40
40
40
40
40
41
40
41
40
41
40
41
10
-86.724272253385976
20
328.07452672597833
30
0
10
-86.724272253385976
20
324.17785099203536
30
0
10
-89.883152073234655
20
321.0189711721867
30
0
10
-93.779827807177639
20
321.0189711721867
30
0
0
LINE
5
160
100
AcDbEntity
8
0
100
AcDbLine
10
-93.779827807177639
20
321.0189711721867
30
0
11
-122.8829461846226
21
321.0189711721867
31
0
0
SPLINE
5
161
100
AcDbEntity
8
0
100
AcDbSpline
70
0
71
3
72
8
73
4
74
0
42
0.000000001
43
0.0000000001
44
0.0000000001
40
42
40
42
40
42
40
42
40
43
40
43
40
43
40
43
10
-122.8829461846226
20
321.0189711721867
30
0
10
-124.73444610837772
20
321.0189711721867
30
0
10
-126.2353833546193
20
319.51803392594513
30
0
10
-126.2353833546193
20
317.66653400219002
30
0
0
LINE
5
162
100
AcDbEntity
8
0
100
AcDbLine
10
-126.2353833546193
20
317.66653400219002
30
0
11
-126.2353833546193
21
288.89960710186517
31
0
0
SPLINE
5
163
100
AcDbEntity
8
0
100
AcDbSpline
70
0
71
3
72
8
73
4
74
0
42
0.000000001
43
0.0000000001
44
0.0000000001
40
44
40
44
40
44
40
44
40
45
40
45
40
45
40
45
10
-126.2353833546193
20
288.89960710186517
30
0
10
-126.2353833546193
20
287.04810717811
30
0
10
-124.73444610837772
20
285.54716993186838
30
0
10
-122.8829461846226
20
285.54716993186838
30
0
0
LINE
5
164
100
AcDbEntity
8
0
100
AcDbLine
10
-122.8829461846226
20
285.54716993186838
30
0
11
-93.779827807177639
21
285.54716993186838
31
0
0
SPLINE
5
165
100
AcDbEntity
8
0
100
AcDbSpline
70
0
71
3
72
8
73
4
74
0
42
0.000000001
43
0.0000000001
44
0.0000000001
40
46
40
46
40
46
40
46
40
47
40
47
40
47
40
47
10
-93.779827807177639
20
285.54716993186838
30
0
10
-89.881637670077112
20
285.54716993186838
30
0
10
-86.724272253385976
20
282.38627329230491
30
0
10
-86.724272253385976
20
278.4916143780768
30
0
0
LINE
5
166
100
AcDbEntity
8
0
100
AcDbLine
10
-86.724272253385976
20
278.4916143780768
30
0
11
-86.724272253385976
21
247.44716994139353
31
0
0
SPLINE
5
167
100
AcDbEntity
8
0
100
AcDbSpline
70
0
71
3
72
8
73
4
74
0
42
0.000000001
43
0.0000000001
44
0.0000000001
40
48
40
48
40
48
40
48
40
49
40
49
40
49
40
49
10
-86.724272253385976
20
247.44716994139353
30
0
10
-86.724272253385976
20
243.55049420745044
30
0
10
-89.883152073234655
20
240.39161438760172
30
0
10
-93.779827807177639
20
240.39161438760172
30
0
0
LINE
5
168
100
AcDbEntity
8
0
100
AcDbLine
10
-93.779827807177639
20
240.39161438760172
30
0
11
-122.8829461846226
21
240.39161438760172
31
0
0
SPLINE
5
169
100
AcDbEntity
8
0
100
AcDbSpline
70
0
71
3
72
8
73
4
74
0
42
0.000000001
43
0.0000000001
44
0.0000000001
40
50
40
50
40
50
40
50
40
51
40
51
40
51
40
51
10
-122.8829461846226
20
240.39161438760172
30
0
10
-124.73444610837772
20
240.39161438760172
30
0
10
-126.2353833546193
20
238.89067714136019
30
0
10
-126.2353833546193
20
237.03917721760513
30
0
0
LINE
5
170
100
AcDbEntity
8
0
100
AcDbLine
10
-126.2353833546193
20
237.03917721760513
30
0
11
-126.2353833546193
21
208.27222878543338
31
0
0
SPLINE
5
171
100
AcDbEntity
8
0
100
AcDbSpline
70
0
71
3
72
8
73
4
74
0
42
0.000000001
43
0.0000000001
44
0.0000000001
40
52
40
52
40
52
40
52
40
53
40
53
40
53
40
53
10
-126.2353833546193
20
208.27222878543338
30
0
10
-126.2353833546193
20
206.42072886167836
30
0
10
-124.73444610837772
20
204.91979161543671
30
0
10
-122.8829461846226
20
204.91979161543671
30
0
0
LINE
5
172
100
AcDbEntity
8
0
100
AcDbLine
10
-122.8829461846226
20
204.91979161543671
30
0
11
-93.779827807177639
21
204.91979161543671
31
0
0
SPLINE
5
173
100
AcDbEntity
8
0
100
AcDbSpline
70
0
71
3
72
8
73
4
74
0
42
0.000000001
43
0.0000000001
44
0.0000000001
40
54
40
54
40
54
40
54
40
55
40
55
40
55
40
55
10
-93.779827807177639
20
204.91979161543671
30
0
10
-89.883152073234655
20
204.91979161543671
30
0
10
-86.724272253385976
20
201.76091179558799
30
0
10
-86.724272253385976
20
197.86423606164504
30
0
0
LINE
5
174
100
AcDbEntity
8
0
100
AcDbLine
10
-86.724272253385976
20
197.86423606164504
30
0
11
-86.724272253385976
21
166.81979162496168
31
0
0
SPLINE
5
175
100
AcDbEntity
8
0
100
AcDbSpline
70
0
71
3
72
8
73
4
74
0
42
0.000000001
43
0.0000000001
44
0.0000000001
40
56
40
56
40
56
40
56
40
57
40
57
40
57
40
57
10
-86.724272253385976
20
166.81979162496168
30
0
10
-86.724272253385976
20
162.92513271073358
30
0
10
-89.881637670077112
20
159.76423607116999
30
0
10
-93.779827807177639
20
159.76423607116999
30
0
0
LINE
5
176
100
AcDbEntity
8
0
100
AcDbLine
10
-93.779827807177639
20
159.76423607116999
30
0
11
-122.8829461846226
21
159.76423607116999
31
0
0
SPLINE
5
177
100
AcDbEntity
8
0
100
AcDbSpline
70
0
71
3
72
8
73
4
74
0
42
0.000000001
43
0.0000000001
44
0.0000000001
40
58
40
58
40
58
40
58
40
59
40
59
40
59
40
59
10
-122.8829461846226
20
159.76423607116999
30
0
10
-124.73444610837772
20
159.76423607116999
30
0
10
-126.2353833546193
20
158.26329882492848
30
0
10
-126.2353833546193
20
156.4117989011734
30
0
0
LINE
5
178
100
AcDbEntity
8
0
100
AcDbLine
10
-126.2353833546193
20
156.4117989011734
30
0
11
-126.2353833546193
21
127.64487200084851
31
0
0
SPLINE
5
179
100
AcDbEntity
8
0
100
AcDbSpline
70
0
71
3
72
8
73
4
74
0
42
0.000000001
43
0.0000000001
44
0.0000000001
40
60
40
60
40
60
40
60
40
61
40
61
40
61
40
61
10
-126.2353833546193
20
127.64487200084851
30
0
10
-126.2353833546193
20
125.79337207709342
30
0
10
-124.73444610837772
20
124.2924348308518
30
0
10
-122.8829461846226
20
124.2924348308518
30
0
0
LINE
5
180
100
AcDbEntity
8
0
100
AcDbLine
10
-122.8829461846226
20
124.2924348308518
30
0
11
-93.779827807177639
21
124.2924348308518
31
0
0
SPLINE
5
181
100
AcDbEntity
8
0
100
AcDbSpline
70
0
71
3
72
8
73
4
74
0
42
0.000000001
43
0.0000000001
44
0.0000000001
40
62
40
62
40
62
40
62
40
63
40
63
40
63
40
63
10
-93.779827807177639
20
124.2924348308518
30
0
10
-89.883152073234655
20
124.2924348308518
30
0
10
-86.724272253385976
20
121.1335550110031
30
0
10
-86.724272253385976
20
117.2368792770601
30
0
0
LINE
5
182
100
AcDbEntity
8
0
100
AcDbLine
10
-86.724272253385976
20
117.2368792770601
30
0
11
-86.724272253385976
21
86.192456372223603
31
0
0
SPLINE
5
183
100
AcDbEntity
8
0
100
AcDbSpline
70
0
71
3
72
8
73
4
74
0
42
0.000000001
43
0.0000000001
44
0.0000000001
40
64
40
64
40
64
40
64
40
65
40
65
40
65
40
65
10
-86.724272253385976
20
86.192456372223603
30
0
10
-86.724272253385976
20
82.297775926148645
30
0
10
-89.881637670077112
20
79.136900818431926
30
0
10
-93.779827807177639
20
79.136900818431926
30
0
0
SPLINE
5
184
100
AcDbEntity
8
0
100
AcDbSpline
70
0
71
3
72
8
73
4
74
0
42
0.000000001
43
0.0000000001
44
0.0000000001
40
65
40
65
40
65
40
65
40
66
40
66
40
66
40
66
10
-93.779827807177639
20
79.136900818431926
30
0
10
-112.05020269410311
20
88.20680370244915
30
0
10
-164.08176929155158
20
90.937300256671065
30
0
10
-174.69686209624371
20
91.688718645697648
30
0
0
SPLINE
5
185
100
AcDbEntity
8
0
100
AcDbSpline
70
0
71
3
72
8
73
4
74
0
42
0.000000001
43
0.0000000001
44
0.0000000001
40
66
40
66
40
66
40
66
40
67
40
67
40
67
40
67
10
-174.69686209624371
20
91.688718645697648
30
0
10
-177.53318767740311
20
91.886251808083145
30
0
10
-179.19472879433897
20
91.946237729266301
30
0
10
-179.1947787617859
20
91.946239533220051
30
0
0
LINE
5
186
100
AcDbEntity
8
0
100
AcDbLine
10
-179.1947787617859
20
91.946239533220051
30
0
11
-216.38023588948371
21
91.946239533220051
31
0
0
SPLINE
5
187
100
AcDbEntity
8
0
100
AcDbSpline
70
0
71
3
72
8
73
4
74
0
42
0.000000001
43
0.0000000001
44
0.0000000001
40
68
40
68
40
68
40
68
40
69
40
69
40
69
40
69
10
-216.38023588948371
20
91.946239533220051
30
0
10
-223.8506318400855
20
91.946239533220051
30
0
10
-229.90658430466354
20
85.890287068641982
30
0
10
-229.90658430466354
20
78.419891118040269
30
0
0
LINE
5
188
100
AcDbEntity
8
0
100
AcDbLine
10
-229.90658430466354
20
78.419891118040269
30
0
11
-229.90658430466354
21
-399.75175249263839
31
0
0
SPLINE
5
189
100
AcDbEntity
8
0
100
AcDbSpline
70
0
71
3
72
8
73
4
74
0
42
0.000000001
43
0.0000000001
44
0.0000000001
40
70
40
70
40
70
40
70
40
71
40
71
40
71
40
71
10
-229.90658430466354
20
-399.75175249263839
30
0
10
-229.90658430466354
20
-402.65096884304626
30
0
10
-227.55630508001479
20
-405.00124806769509
30
0
10
-224.6570887296069
20
-405.00124806769509
30
0
0
LINE
5
190
100
AcDbEntity
8
0
100
AcDbLine
10
-224.6570887296069
20
-405.00124806769509
30
0
11
224.65708872960661
21
-405.00124806769509
31
0
0
SPLINE
5
191
100
AcDbEntity
8
0
100
AcDbSpline
70
0
71
3
72
8
73
4
74
0
42
0.000000001
43
0.0000000001
44
0.0000000001
40
72
40
72
40
72
40
72
40
73
40
73
40
73
40
73
10
224.65708872960661
20
-405.00124806769509
30
0
10
227.55630508001445
20
-405.00124806769509
30
0
10
229.90658430466323
20
-402.65096884304626
30
0
10
229.90658430466323
20
-399.75175249263839
30
0
0
LINE
5
192
100
AcDbEntity
8
0
100
AcDbLine
10
229.90658430466323
20
-399.75175249263839
30
0
11
229.90658430466323
21
78.41989111804061
31
0
0
SPLINE
5
193
100
AcDbEntity
8
0
100
AcDbSpline
70
0
71
3
72
8
73
4
74
0
42
0.000000001
43
0.0000000001
44
0.0000000001
40
74
40
74
40
74
40
74
40
75
40
75
40
75
40
75
10
229.90658430466323
20
78.419891118040596
30
0
10
229.90658430466323
20
85.890287068641982
30
0
10
223.85063184008519
20
91.946239533220051
30
0
10
216.38023588948343
20
91.946239533220051
30
0
0
LINE
5
194
100
AcDbEntity
8
0
100
AcDbLine
10
216.38023588948343
20
91.946239533220051
30
0
11
179.1947787617855
21
91.946239533220051
31
0
0
ENDSEC
0
SECTION
2
OBJECTS
0
DICTIONARY
5
C
100
AcDbDictionary
3
ACAD_GROUP
350
D
3
ACAD_MLINESTYLE
350
17
0
DICTIONARY
5
D
100
AcDbDictionary
0
DICTIONARY
5
1A
330
C
100
AcDbDictionary
0
DICTIONARY
5
17
100
AcDbDictionary
0
ENDSEC
0
EOF
