  0
SECTION
  2
HEADER
  9
$ACADVER
  1
AC1009
  9
$DWGCODEPAGE
  3
ansi_1252
  9
$INSBASE
 10
0.0
 20
0.0
 30
0.0
  9
$EXTMIN
 10
5.897500000000001
 20
0.4260123743817701
 30
-0.0000000000000005
  9
$EXTMAX
 10
271.8029212707445
 20
286.5061727462669
 30
0.0000000000000005
  9
$LIMMIN
 10
0.0
 20
0.0
  9
$LIMMAX
 10
12.0
 20
9.0
  9
$ORTHOMODE
 70
     0
  9
$REGENMODE
 70
     1
  9
$FILLMODE
 70
     1
  9
$QTEXTMODE
 70
     0
  9
$MIRRTEXT
 70
     1
  9
$DRAGMODE
 70
     2
  9
$LTSCALE
 40
12.7
  9
$OSMODE
 70
    23
  9
$ATTMODE
 70
     1
  9
$TEXTSIZE
 40
3.5
  9
$TRACEWID
 40
0.05
  9
$TEXTSTYLE
  7
ONSHAPE-STANDARD
  9
$CLAYER
  8
0
  9
$CELTYPE
  6
BYLAYER
  9
$CECOLOR
 62
   256
  9
$DIMSCALE
 40
1.0
  9
$DIMASZ
 40
2.5
  9
$DIMEXO
 40
0.625
  9
$DIMDLI
 40
3.75
  9
$DIMRND
 40
0.0
  9
$DIMDLE
 40
0.0
  9
$DIMEXE
 40
1.25
  9
$DIMTP
 40
0.0
  9
$DIMTM
 40
0.0
  9
$DIMTXT
 40
3.5
  9
$DIMCEN
 40
2.5
  9
$DIMTSZ
 40
0.0
  9
$DIMTOL
 70
     0
  9
$DIMLIM
 70
     0
  9
$DIMTIH
 70
     0
  9
$DIMTOH
 70
     0
  9
$DIMSE1
 70
     0
  9
$DIMSE2
 70
     0
  9
$DIMTAD
 70
     1
  9
$DIMZIN
 70
     8
  9
$DIMBLK
  1

  9
$DIMASO
 70
     1
  9
$DIMSHO
 70
     1
  9
$DIMPOST
  1

  9
$DIMAPOST
  1

  9
$DIMALT
 70
     0
  9
$DIMALTD
 70
     3
  9
$DIMALTF
 40
0.03937
  9
$DIMLFAC
 40
1.0
  9
$DIMTOFL
 70
     1
  9
$DIMTVP
 40
0.0
  9
$DIMTIX
 70
     0
  9
$DIMSOXD
 70
     0
  9
$DIMSAH
 70
     0
  9
$DIMBLK1
  1

  9
$DIMBLK2
  1

  9
$DIMSTYLE
  2
ONSHAPE-ISO-25
  9
$DIMCLRD
 70
     7
  9
$DIMCLRE
 70
     7
  9
$DIMCLRT
 70
     7
  9
$DIMTFAC
 40
1.0
  9
$DIMGAP
 40
0.625
  9
$LUNITS
 70
     2
  9
$LUPREC
 70
     4
  9
$SKETCHINC
 40
0.1
  9
$FILLETRAD
 40
0.5
  9
$AUNITS
 70
     0
  9
$AUPREC
 70
     0
  9
$MENU
  1
.
  9
$ELEVATION
 40
0.0
  9
$PELEVATION
 40
0.0
  9
$THICKNESS
 40
0.0
  9
$LIMCHECK
 70
     0
  9
$CHAMFERA
 40
0.0
  9
$CHAMFERB
 40
0.0
  9
$SKPOLY
 70
     0
  9
$TDCREATE
 40
2461011.571720949
  9
$TDUPDATE
 40
2461011.571722165
  9
$TDINDWG
 40
0.0
  9
$TDUSRTIMER
 40
0.0
  9
$USRTIMER
 70
     1
  9
$ANGBASE
 50
0.0
  9
$ANGDIR
 70
     0
  9
$PDMODE
 70
    33
  9
$PDSIZE
 40
1.0
  9
$PLINEWID
 40
0.0
  9
$COORDS
 70
     1
  9
$SPLFRAME
 70
     0
  9
$SPLINETYPE
 70
     6
  9
$SPLINESEGS
 70
     8
  9
$ATTDIA
 70
     0
  9
$ATTREQ
 70
     1
  9
$HANDLING
 70
     1
  9
$HANDSEED
  5
5B3
  9
$SURFTAB1
 70
     6
  9
$SURFTAB2
 70
     6
  9
$SURFTYPE
 70
     6
  9
$SURFU
 70
     6
  9
$SURFV
 70
     6
  9
$UCSNAME
  2

  9
$UCSORG
 10
0.0
 20
0.0
 30
0.0
  9
$UCSXDIR
 10
1.0
 20
0.0
 30
0.0
  9
$UCSYDIR
 10
0.0
 20
1.0
 30
0.0
  9
$PUCSNAME
  2

  9
$PUCSORG
 10
0.0
 20
0.0
 30
0.0
  9
$PUCSXDIR
 10
1.0
 20
0.0
 30
0.0
  9
$PUCSYDIR
 10
0.0
 20
1.0
 30
0.0
  9
$USERI1
 70
     0
  9
$USERI2
 70
     0
  9
$USERI3
 70
     0
  9
$USERI4
 70
     0
  9
$USERI5
 70
     0
  9
$USERR1
 40
0.0
  9
$USERR2
 40
0.0
  9
$USERR3
 40
0.0
  9
$USERR4
 40
0.0
  9
$USERR5
 40
0.0
  9
$WORLDVIEW
 70
     1
  9
$SHADEDGE
 70
     3
  9
$SHADEDIF
 70
    70
  9
$TILEMODE
 70
     1
  9
$MAXACTVP
 70
    64
  9
$PLIMCHECK
 70
     0
  9
$PEXTMIN
 10
1.000000000000000E+20
 20
1.000000000000000E+20
 30
1.000000000000000E+20
  9
$PEXTMAX
 10
-1.000000000000000E+20
 20
-1.000000000000000E+20
 30
-1.000000000000000E+20
  9
$PLIMMIN
 10
0.0
 20
0.0
  9
$PLIMMAX
 10
12.0
 20
9.0
  9
$UNITMODE
 70
     0
  9
$VISRETAIN
 70
     1
  9
$PLINEGEN
 70
     0
  9
$PSLTSCALE
 70
     1
  0
ENDSEC
  0
SECTION
  2
TABLES
  0
TABLE
  2
VPORT
 70
     1
  0
VPORT
  2
*ACTIVE
 70
     0
 10
0.0
 20
0.0
 11
1.0
 21
1.0
 12
138.8502106353723
 22
143.4660925603244
 13
0.0
 23
0.0
 14
0.5
 24
0.5
 15
0.5
 25
0.5
 16
0.0
 26
0.0
 36
1.0
 17
0.0
 27
0.0
 37
0.0
 40
291.8017635793229
 41
0.9294787199681558
 42
50.0
 43
0.0
 44
0.0
 50
0.0
 51
0.0
 71
     0
 72
   100
 73
     1
 74
     3
 75
     0
 76
     0
 77
     0
 78
     0
  0
ENDTAB
  0
TABLE
  2
LTYPE
 70
     1
  0
LTYPE
  2
CONTINUOUS
 70
     0
  3
Solid line
 72
    65
 73
     0
 40
0.0
  0
ENDTAB
  0
TABLE
  2
LAYER
 70
     2
  0
LAYER
  2
0
 70
     0
 62
     7
  6
CONTINUOUS
  0
LAYER
  2
VISIBLE
 70
     0
 62
     7
  6
CONTINUOUS
  0
ENDTAB
  0
TABLE
  2
STYLE
 70
    36
  0
STYLE
  2
STANDARD
 70
     0
 40
0.0
 41
1.0
 50
0.0
 71
     0
 42
3.5
  3
txt
  4

  0
STYLE
  2
ONSHAPE-STANDARD
 70
     0
 40
0.0
 41
1.0
 50
0.0
 71
     0
 42
3.5
  3
NotoSans-Regular.ttf
  4

  0
STYLE
  2
ONSHAPE-STANDARD-DIMENSION
 70
     0
 40
0.0
 41
1.0
 50
0.0
 71
     0
 42
3.5
  3

  4

  0
STYLE
  2
ONSHAPE-STANDARD-BOLD
 70
     0
 40
0.0
 41
1.0
 50
0.0
 71
     0
 42
3.5
  3
NotoSans-Bold.ttf
  4

  0
STYLE
  2
ONSHAPE-STANDARD-FIELDS
 70
     0
 40
0.0
 41
1.0
 50
0.0
 71
     0
 42
3.5
  3

  4

  0
STYLE
  2
ONSHAPE-STANDARD-TCFIELDS
 70
     0
 40
0.0
 41
1.0
 50
0.0
 71
     0
 42
3.5
  3
NotoSansTC-Regular.otf
  4

  0
STYLE
  2
ONSHAPE-STANDARD-SCFIELDS
 70
     0
 40
0.0
 41
1.0
 50
0.0
 71
     0
 42
3.5
  3
NotoSansSC-Regular.otf
  4

  0
STYLE
  2
ONSHAPE-STANDARD-KOREANFIE
 70
     0
 40
0.0
 41
1.0
 50
0.0
 71
     0
 42
3.5
  3
NotoSansKR-Regular.otf
  4

  0
STYLE
  2
ONSHAPE-STANDARD-JAPANESEF
 70
     0
 40
0.0
 41
1.0
 50
0.0
 71
     0
 42
3.5
  3
NotoSansJP-Regular.otf
  4

  0
STYLE
  2
TTFSTYLE
 70
     0
 40
0.0
 41
1.0
 50
0.0
 71
     0
 42
3.5
  3
Verdana.ttf
  4

  0
STYLE
  2
ONSHAPE-STANDARD-GTOLERANC
 70
     0
 40
0.0
 41
1.0
 50
0.0
 71
     0
 42
3.5
  3

  4

  0
STYLE
  2
ONSHAPE-STANDARD-TABLE-DAT
 70
     0
 40
0.0
 41
1.0
 50
0.0
 71
     0
 42
3.5
  3
NotoSans-Regular.ttf
  4

  0
STYLE
  2
ONSHAPE-STANDARD-TABLE-TIT
 70
     0
 40
0.0
 41
1.0
 50
0.0
 71
     0
 42
3.5
  3
NotoSans-Bold.ttf
  4

  0
STYLE
  2
ONSHAPE-STANDARD-TABLE-HEA
 70
     0
 40
0.0
 41
1.0
 50
0.0
 71
     0
 42
3.5
  3
NotoSans-Bold.ttf
  4

  0
STYLE
  2
ONSHAPE-STANDARD-BOMTABLE-
 70
     0
 40
0.0
 41
1.0
 50
0.0
 71
     0
 42
3.5
  3
NotoSans-Regular.ttf
  4

  0
STYLE
  2
ONSHAPE-STANDARD-BOMTABLE0
 70
     0
 40
0.0
 41
1.0
 50
0.0
 71
     0
 42
3.5
  3
NotoSans-Bold.ttf
  4

  0
STYLE
  2
ONSHAPE-STANDARD-BOMTABLE1
 70
     0
 40
0.0
 41
1.0
 50
0.0
 71
     0
 42
3.5
  3
NotoSans-Bold.ttf
  4

  0
STYLE
  2
ONSHAPE-STANDARD-NOTESTYLE
 70
     0
 40
3.5
 41
1.0
 50
0.0
 71
     0
 42
3.5
  3
Noto Sans
  4

  0
STYLE
  2
ONSHAPE-STANDARD-DATUM-DIM
 70
     0
 40
3.5
 41
1.0
 50
0.0
 71
     0
 42
3.5
  3
Noto Sans
  4

  0
STYLE
  2
ONSHAPE-STANDARD-VIEW-LABE
 70
     0
 40
3.5
 41
1.0
 50
0.0
 71
     0
 42
3.5
  3
NotoSans-Regular.ttf
  4

  0
STYLE
  2
ONSHAPE-DETAIL-VIEW-LEADER
 70
     0
 40
3.5
 41
1.0
 50
0.0
 71
     0
 42
3.5
  3
Noto Sans
  4

  0
STYLE
  2
ONSHAPE-STANDARD-HOLE-CALL
 70
     0
 40
3.5
 41
1.0
 50
0.0
 71
     0
 42
3.5
  3
Noto Sans
  4

  0
STYLE
  2
ONSHAPE-STANDARD-HOLETABLE
 70
     0
 40
0.0
 41
1.0
 50
0.0
 71
     0
 42
3.5
  3
NotoSans-Regular.ttf
  4

  0
STYLE
  2
ONSHAPE-STANDARD-HOLETABL0
 70
     0
 40
0.0
 41
1.0
 50
0.0
 71
     0
 42
3.5
  3
NotoSans-Bold.ttf
  4

  0
STYLE
  2
ONSHAPE-STANDARD-HOLETABL1
 70
     0
 40
0.0
 41
1.0
 50
0.0
 71
     0
 42
3.5
  3
NotoSans-Bold.ttf
  4

  0
STYLE
  2
ONSHAPE-STANDARD-HOLE-TAG
 70
     0
 40
3.5
 41
1.0
 50
0.0
 71
     0
 42
3.5
  3
Noto Sans
  4

  0
STYLE
  2
ONSHAPE-STANDARD-REVISIONT
 70
     0
 40
0.0
 41
1.0
 50
0.0
 71
     0
 42
3.5
  3
NotoSans-Regular.ttf
  4

  0
STYLE
  2
ONSHAPE-STANDARD-REVISION0
 70
     0
 40
0.0
 41
1.0
 50
0.0
 71
     0
 42
3.5
  3
NotoSans-Bold.ttf
  4

  0
STYLE
  2
ONSHAPE-STANDARD-REVISION1
 70
     0
 40
0.0
 41
1.0
 50
0.0
 71
     0
 42
3.5
  3
NotoSans-Bold.ttf
  4

  0
STYLE
  2
ONSHAPE-STANDARD-REVISION-
 70
     0
 40
3.5
 41
1.0
 50
0.0
 71
     0
 42
3.5
  3
Noto Sans
  4

  0
STYLE
  2
ONSHAPE-STANDARD-CUTLISTTA
 70
     0
 40
0.0
 41
1.0
 50
0.0
 71
     0
 42
3.5
  3
NotoSans-Regular.ttf
  4

  0
STYLE
  2
ONSHAPE-STANDARD-CUTLISTT0
 70
     0
 40
0.0
 41
1.0
 50
0.0
 71
     0
 42
3.5
  3
NotoSans-Bold.ttf
  4

  0
STYLE
  2
ONSHAPE-STANDARD-CUTLISTT1
 70
     0
 40
0.0
 41
1.0
 50
0.0
 71
     0
 42
3.5
  3
NotoSans-Bold.ttf
  4

  0
STYLE
  2
ONSHAPE-STANDARD-CUSTOMTAB
 70
     0
 40
0.0
 41
1.0
 50
0.0
 71
     0
 42
3.5
  3
NotoSans-Regular.ttf
  4

  0
STYLE
  2
ONSHAPE-STANDARD-CUSTOMTA0
 70
     0
 40
0.0
 41
1.0
 50
0.0
 71
     0
 42
3.5
  3
NotoSans-Bold.ttf
  4

  0
STYLE
  2
ONSHAPE-STANDARD-CUSTOMTA1
 70
     0
 40
0.0
 41
1.0
 50
0.0
 71
     0
 42
3.5
  3
NotoSans-Bold.ttf
  4

  0
ENDTAB
  0
TABLE
  2
VIEW
 70
     0
  0
ENDTAB
  0
TABLE
  2
UCS
 70
     0
  0
ENDTAB
  0
TABLE
  2
APPID
 70
     1
  0
APPID
  2
ACAD
 70
     0
  0
ENDTAB
  0
TABLE
  2
DIMSTYLE
 70
    23
  0
DIMSTYLE
  2
STANDARD
 70
     0
  3

  4

  5

  6

  7

 40
1.0
 41
0.18
 42
0.0625
 43
0.38
 44
0.18
 45
0.0
 46
0.0
 47
0.0
 48
0.0
140
0.18
141
0.09
142
0.0
143
25.4
144
1.0
145
0.0
146
1.0
147
0.09
 71
     0
 72
     0
 73
     1
 74
     1
 75
     0
 76
     0
 77
     0
 78
     0
170
     0
171
     2
172
     0
173
     0
174
     0
175
     0
176
     0
177
     0
178
     0
  0
DIMSTYLE
  2
ONSHAPE-ISO-25
 70
     0
  3

  4

  5

  6

  7

 40
1.0
 41
2.5
 42
0.625
 43
3.75
 44
1.25
 45
0.0
 46
0.0
 47
0.0
 48
0.0
140
3.5
141
2.5
142
0.0
143
0.03937
144
1.0
145
0.0
146
1.0
147
0.625
 71
     0
 72
     0
 73
     0
 74
     0
 75
     0
 76
     0
 77
     1
 78
     8
170
     0
171
     3
172
     1
173
     0
174
     0
175
     0
176
     7
177
     7
178
     7
  0
DIMSTYLE
  2
ISO-25
 70
     0
  3

  4

  5

  6

  7

 40
1.0
 41
2.5
 42
0.625
 43
3.75
 44
1.25
 45
0.0
 46
0.0
 47
0.0
 48
0.0
140
2.5
141
2.5
142
0.0
143
0.03937007874016
144
1.0
145
0.0
146
1.0
147
0.625
 71
     0
 72
     0
 73
     0
 74
     0
 75
     0
 76
     0
 77
     1
 78
     8
170
     0
171
     3
172
     1
173
     0
174
     0
175
     0
176
     7
177
     7
178
     7
  0
DIMSTYLE
  2
ISO
 70
     0
  3

  4
"
  5

  6

  7

 40
1.0
 41
3.5
 42
1.0
 43
10.0
 44
1.0
 45
0.0
 46
0.0
 47
0.1
 48
0.1
140
3.5
141
0.0
142
0.0
143
0.03937
144
1.0
145
0.0
146
0.71
147
1.5
 71
     0
 72
     0
 73
     0
 74
     0
 75
     0
 76
     0
 77
     1
 78
     8
170
     0
171
     3
172
     1
173
     0
174
     0
175
     0
176
     7
177
     7
178
     7
  0
DIMSTYLE
  2
ISO$3
 70
     0
  3

  4
"
  5

  6

  7

 40
1.0
 41
3.5
 42
1.0
 43
10.0
 44
1.0
 45
0.0
 46
0.0
 47
0.1
 48
0.1
140
3.5
141
0.0
142
0.0
143
0.03937
144
1.0
145
0.0
146
0.71
147
1.5
 71
     0
 72
     0
 73
     0
 74
     1
 75
     0
 76
     0
 77
     1
 78
     8
170
     0
171
     3
172
     0
173
     0
174
     0
175
     0
176
     7
177
     7
178
     7
  0
DIMSTYLE
  2
ISO$4
 70
     0
  3

  4
"
  5

  6

  7

 40
1.0
 41
3.5
 42
1.0
 43
10.0
 44
1.0
 45
0.0
 46
0.0
 47
0.1
 48
0.1
140
3.5
141
0.0
142
0.0
143
0.03937
144
1.0
145
0.0
146
0.71
147
1.5
 71
     0
 72
     0
 73
     0
 74
     0
 75
     0
 76
     0
 77
     1
 78
     8
170
     0
171
     3
172
     1
173
     0
174
     0
175
     0
176
     7
177
     7
178
     7
  0
DIMSTYLE
  2
ISO$6
 70
     0
  3

  4
"
  5

  6

  7

 40
1.0
 41
0.5
 42
1.0
 43
10.0
 44
1.0
 45
0.0
 46
0.0
 47
0.1
 48
0.1
140
3.5
141
0.0
142
0.0
143
0.03937
144
1.0
145
0.0
146
0.71
147
1.5
 71
     0
 72
     0
 73
     0
 74
     0
 75
     0
 76
     0
 77
     0
 78
     8
170
     0
171
     3
172
     1
173
     0
174
     0
175
     0
176
     7
177
     7
178
     7
  0
DIMSTYLE
  2
ISO$7
 70
     0
  3

  4
"
  5

  6

  7

 40
1.0
 41
3.5
 42
1.0
 43
10.0
 44
1.0
 45
0.0
 46
0.0
 47
0.1
 48
0.1
140
3.5
141
0.0
142
0.0
143
0.03937
144
1.0
145
0.0
146
0.71
147
1.5
 71
     0
 72
     0
 73
     0
 74
     0
 75
     0
 76
     0
 77
     1
 78
     8
170
     0
171
     3
172
     1
173
     0
174
     0
175
     0
176
     7
177
     7
178
     7
  0
DIMSTYLE
  2
ISO$SF
 70
     0
  3

  4
"
  5

  6

  7

 40
1.0
 41
3.5
 42
1.0
 43
10.0
 44
1.0
 45
0.0
 46
0.0
 47
0.1
 48
0.1
140
3.5
141
0.0
142
0.0
143
0.03937
144
1.0
145
0.0
146
0.71
147
1.5
 71
     0
 72
     0
 73
     0
 74
     0
 75
     1
 76
     1
 77
     1
 78
     8
170
     0
171
     3
172
     1
173
     0
174
     0
175
     0
176
     7
177
     7
178
     7
  0
DIMSTYLE
  2
ISO$SH
 70
     0
  3

  4
"
  5

  6

  7

 40
1.0
 41
3.5
 42
1.0
 43
10.0
 44
1.0
 45
0.0
 46
0.0
 47
0.1
 48
0.1
140
3.5
141
0.0
142
0.0
143
0.03937
144
2.0
145
0.0
146
0.71
147
1.5
 71
     0
 72
     0
 73
     0
 74
     0
 75
     1
 76
     1
 77
     1
 78
     8
170
     0
171
     3
172
     1
173
     1
174
     0
175
     0
176
     7
177
     7
178
     7
  0
DIMSTYLE
  2
ONSHAPE-ISO-25$0
 70
     0
  3

  4

  5

  6

  7

 40
1.0
 41
2.5
 42
0.625
 43
3.75
 44
1.25
 45
0.0
 46
0.0
 47
0.0
 48
0.0
140
3.5
141
2.5
142
0.0
143
0.03937
144
1.0
145
0.0
146
1.0
147
0.625
 71
     0
 72
     0
 73
     0
 74
     0
 75
     0
 76
     0
 77
     1
 78
     8
170
     0
171
     3
172
     1
173
     0
174
     0
175
     0
176
     7
177
     7
178
     7
  0
DIMSTYLE
  2
ONSHAPE-ISO-25$2
 70
     0
  3

  4

  5

  6

  7

 40
1.0
 41
2.5
 42
0.625
 43
3.75
 44
1.25
 45
0.0
 46
0.0
 47
0.0
 48
0.0
140
3.5
141
2.5
142
0.0
143
0.03937
144
1.0
145
0.0
146
1.0
147
0.625
 71
     0
 72
     0
 73
     0
 74
     0
 75
     0
 76
     0
 77
     1
 78
     8
170
     0
171
     3
172
     1
173
     0
174
     0
175
     0
176
     7
177
     7
178
     7
  0
DIMSTYLE
  2
ONSHAPE-ISO-25$3
 70
     0
  3

  4

  5

  6

  7

 40
1.0
 41
2.5
 42
0.625
 43
3.75
 44
1.25
 45
0.0
 46
0.0
 47
0.0
 48
0.0
140
3.5
141
0.0
142
0.0
143
0.03937
144
1.0
145
0.0
146
1.0
147
0.625
 71
     0
 72
     0
 73
     0
 74
     0
 75
     0
 76
     0
 77
     1
 78
     8
170
     0
171
     3
172
     1
173
     0
174
     0
175
     0
176
     7
177
     7
178
     7
  0
DIMSTYLE
  2
ONSHAPE-ISO-25$4
 70
     0
  3

  4

  5

  6

  7

 40
1.0
 41
2.5
 42
0.625
 43
3.75
 44
1.25
 45
0.0
 46
0.0
 47
0.0
 48
0.0
140
3.5
141
0.0
142
0.0
143
0.03937
144
1.0
145
0.0
146
1.0
147
0.625
 71
     0
 72
     0
 73
     0
 74
     0
 75
     0
 76
     0
 77
     1
 78
     8
170
     0
171
     3
172
     1
173
     0
174
     0
175
     0
176
     7
177
     7
178
     7
  0
DIMSTYLE
  2
ONSHAPE-ISO-25$6
 70
     0
  3

  4

  5

  6

  7

 40
1.0
 41
0.5
 42
0.625
 43
3.75
 44
1.25
 45
0.0
 46
0.0
 47
0.0
 48
0.0
140
3.5
141
2.5
142
0.0
143
0.03937
144
1.0
145
0.0
146
1.0
147
0.625
 71
     0
 72
     0
 73
     0
 74
     0
 75
     0
 76
     0
 77
     1
 78
     8
170
     0
171
     3
172
     1
173
     0
174
     0
175
     0
176
     7
177
     7
178
     7
  0
DIMSTYLE
  2
ONSHAPE-ISO-25$7
 70
     0
  3

  4

  5

  6

  7

 40
1.0
 41
2.5
 42
0.625
 43
3.75
 44
1.25
 45
0.0
 46
0.0
 47
0.0
 48
0.0
140
3.5
141
2.5
142
0.0
143
0.03937
144
1.0
145
0.0
146
1.0
147
0.625
 71
     0
 72
     0
 73
     0
 74
     0
 75
     0
 76
     0
 77
     1
 78
     8
170
     0
171
     3
172
     1
173
     0
174
     0
175
     0
176
     7
177
     7
178
     7
  0
DIMSTYLE
  2
ONSHAPE-STANDARD-GTOLERANC
 70
     0
  3

  4

  5

  6

  7

 40
1.0
 41
2.5
 42
0.625
 43
3.75
 44
1.25
 45
0.0
 46
0.0
 47
0.0
 48
0.0
140
3.5
141
2.5
142
0.0
143
0.03937
144
1.0
145
0.0
146
1.0
147
0.625
 71
     0
 72
     0
 73
     0
 74
     0
 75
     0
 76
     0
 77
     1
 78
     8
170
     0
171
     3
172
     1
173
     0
174
     0
175
     0
176
     7
177
     7
178
     7
  0
DIMSTYLE
  2
ONSHAPE-ORDINATESTYLE
 70
     0
  3

  4

  5

  6

  7

 40
1.0
 41
2.5
 42
0.625
 43
3.75
 44
1.25
 45
0.0
 46
0.0
 47
0.0
 48
0.0
140
3.5
141
2.5
142
0.0
143
0.03937
144
1.0
145
0.0
146
1.0
147
0.625
 71
     0
 72
     0
 73
     0
 74
     0
 75
     0
 76
     0
 77
     1
 78
     8
170
     0
171
     3
172
     1
173
     0
174
     0
175
     0
176
     7
177
     7
178
     7
  0
DIMSTYLE
  2
ONSHAPE-CHAMFERDIMSTYLE
 70
     0
  3

  4

  5

  6

  7

 40
1.0
 41
2.5
 42
0.625
 43
3.75
 44
1.25
 45
0.0
 46
0.0
 47
0.0
 48
0.0
140
3.5
141
2.5
142
0.0
143
0.03937
144
1.0
145
0.0
146
1.0
147
0.625
 71
     0
 72
     0
 73
     0
 74
     0
 75
     0
 76
     0
 77
     1
 78
     8
170
     0
171
     3
172
     1
173
     0
174
     0
175
     0
176
     7
177
     7
178
     7
  0
DIMSTYLE
  2
ONSHAPE-SKETCHDRIVENDIMSTY
 70
     0
  3

  4

  5

  6

  7

 40
1.0
 41
2.5
 42
0.625
 43
3.75
 44
1.25
 45
0.0
 46
0.0
 47
0.0
 48
0.0
140
3.5
141
2.5
142
0.0
143
0.03937
144
1.0
145
0.0
146
1.0
147
0.625
 71
     0
 72
     0
 73
     0
 74
     0
 75
     0
 76
     0
 77
     1
 78
     8
170
     0
171
     3
172
     1
173
     0
174
     0
175
     0
176
   251
177
   251
178
   251
  0
DIMSTYLE
  2
ONSHAPE-SKETCHDRIVENDIMST0
 70
     0
  3

  4

  5

  6

  7

 40
1.0
 41
2.5
 42
0.625
 43
3.75
 44
1.25
 45
0.0
 46
0.0
 47
0.0
 48
0.0
140
3.5
141
2.5
142
0.0
143
0.03937
144
1.0
145
0.0
146
1.0
147
0.625
 71
     0
 72
     0
 73
     0
 74
     0
 75
     0
 76
     0
 77
     1
 78
     8
170
     0
171
     3
172
     1
173
     0
174
     0
175
     0
176
   251
177
   251
178
   251
  0
DIMSTYLE
  2
ONSHAPE-SKETCHDRIVENDIMST1
 70
     0
  3

  4

  5

  6

  7

 40
1.0
 41
2.5
 42
0.625
 43
3.75
 44
1.25
 45
0.0
 46
0.0
 47
0.0
 48
0.0
140
3.5
141
0.0
142
0.0
143
0.03937
144
1.0
145
0.0
146
1.0
147
0.625
 71
     0
 72
     0
 73
     0
 74
     0
 75
     0
 76
     0
 77
     1
 78
     8
170
     0
171
     3
172
     1
173
     0
174
     0
175
     0
176
   251
177
   251
178
   251
  0
DIMSTYLE
  2
ONSHAPE-SKETCHDRIVENDIMST2
 70
     0
  3

  4

  5

  6

  7

 40
1.0
 41
2.5
 42
0.625
 43
3.75
 44
1.25
 45
0.0
 46
0.0
 47
0.0
 48
0.0
140
3.5
141
0.0
142
0.0
143
0.03937
144
1.0
145
0.0
146
1.0
147
0.625
 71
     0
 72
     0
 73
     0
 74
     0
 75
     0
 76
     0
 77
     1
 78
     8
170
     0
171
     3
172
     1
173
     0
174
     0
175
     0
176
   251
177
   251
178
   251
  0
ENDTAB
  0
ENDSEC
  0
SECTION
  2
BLOCKS
  0
BLOCK
  8
0
  2
$MODEL_SPACE
 70
     0
 10
0.0
 20
0.0
 30
0.0
  3
$MODEL_SPACE
  1

  0
ENDBLK
  5
21
  8
0
  0
BLOCK
 67
     1
  8
0
  2
$PAPER_SPACE
 70
     0
 10
0.0
 20
0.0
 30
0.0
  3
$PAPER_SPACE
  1

  0
ENDBLK
  5
1D
 67
     1
  8
0
  0
ENDSEC
  0
SECTION
  2
ENTITIES
  0
LINE
  5
75
  8
VISIBLE
 10
35.89750000000002
 20
105.4510496735748
 30
0.0
 11
33.39749999999999
 21
105.4510496735748
 31
0.0
  0
LINE
  5
76
  8
VISIBLE
 10
33.39749999999999
 20
105.4510496735748
 30
0.0
 11
33.39750000000001
 21
104.4510496735748
 31
0.0
  0
LINE
  5
77
  8
VISIBLE
 10
35.89750000000002
 20
104.4510496735748
 30
0.0
 11
33.39750000000001
 21
104.4510496735748
 31
0.0
  0
LINE
  5
78
  8
VISIBLE
 10
35.89750000000002
 20
105.4510496735748
 30
0.0
 11
35.89750000000002
 21
104.4510496735748
 31
0.0
  0
LINE
  5
79
  8
VISIBLE
 10
35.89749999999998
 20
6.451049673574779
 30
0.0
 11
33.39749999999998
 21
6.451049673574779
 31
0.0
  0
LINE
  5
7A
  8
VISIBLE
 10
33.39749999999999
 20
5.451049673574779
 30
0.0
 11
33.39749999999998
 21
6.451049673574779
 31
0.0
  0
LINE
  5
7B
  8
VISIBLE
 10
35.89749999999999
 20
5.451049673574779
 30
0.0
 11
33.39749999999999
 21
5.451049673574779
 31
0.0
  0
LINE
  5
7C
  8
VISIBLE
 10
35.89749999999999
 20
5.451049673574779
 30
0.0
 11
35.89749999999998
 21
6.451049673574779
 31
0.0
  0
LINE
  5
7D
  8
VISIBLE
 10
11.89750000000002
 20
56.70104967357479
 30
0.0
 11
10.89750000000002
 21
56.70104967357479
 31
0.0
  0
LINE
  5
7E
  8
VISIBLE
 10
10.89750000000002
 20
56.70104967357479
 30
0.0
 11
10.89750000000002
 21
54.20104967357479
 31
0.0
  0
LINE
  5
7F
  8
VISIBLE
 10
11.89750000000002
 20
54.20104967357477
 30
0.0
 11
10.89750000000002
 21
54.20104967357479
 31
0.0
  0
LINE
  5
80
  8
VISIBLE
 10
11.89750000000002
 20
56.70104967357479
 30
0.0
 11
11.89750000000002
 21
54.20104967357477
 31
0.0
  0
LINE
  5
81
  8
VISIBLE
 10
74.89750000000001
 20
56.70104967357476
 30
0.0
 11
74.89750000000001
 21
54.20104967357476
 31
0.0
  0
LINE
  5
82
  8
VISIBLE
 10
74.89750000000001
 20
54.20104967357476
 30
0.0
 11
75.89750000000001
 21
54.20104967357478
 31
0.0
  0
LINE
  5
83
  8
VISIBLE
 10
75.89750000000001
 20
56.70104967357478
 30
0.0
 11
75.89750000000001
 21
54.20104967357478
 31
0.0
  0
LINE
  5
84
  8
VISIBLE
 10
74.89750000000001
 20
56.70104967357476
 30
0.0
 11
75.89750000000001
 21
56.70104967357478
 31
0.0
  0
LINE
  5
85
  8
VISIBLE
 10
5.897500000000001
 20
40.45104967357479
 30
0.0
 11
8.897500000000022
 21
40.45104967357479
 31
0.0
  0
LINE
  5
86
  8
VISIBLE
 10
5.897500000000001
 20
70.45104967357479
 30
0.0
 11
5.897500000000001
 21
40.45104967357479
 31
0.0
  0
LINE
  5
87
  8
VISIBLE
 10
5.897500000000001
 20
70.45104967357479
 30
0.0
 11
8.897500000000022
 21
70.45104967357479
 31
0.0
  0
LINE
  5
88
  8
VISIBLE
 10
8.897500000000022
 20
70.45104967357479
 30
0.0
 11
8.897500000000015
 21
86.45104967357479
 31
0.0
  0
LINE
  5
89
  8
VISIBLE
 10
5.897500000000008
 20
86.45104967357479
 30
0.0
 11
8.897500000000015
 21
86.45104967357479
 31
0.0
  0
LINE
  5
8A
  8
VISIBLE
 10
5.897500000000008
 20
86.45104967357479
 30
0.0
 11
5.897500000000008
 21
110.4510496735748
 31
0.0
  0
LINE
  5
8B
  8
VISIBLE
 10
5.897500000000008
 20
110.4510496735748
 30
0.0
 11
25.89750000000002
 21
110.4510496735748
 31
0.0
  0
LINE
  5
8C
  8
VISIBLE
 10
25.89750000000002
 20
110.4510496735748
 30
0.0
 11
25.8975
 21
107.4510496735748
 31
0.0
  0
LINE
  5
8D
  8
VISIBLE
 10
48.39750000000002
 20
107.4510496735748
 30
0.0
 11
25.8975
 21
107.4510496735748
 31
0.0
  0
LINE
  5
8E
  8
VISIBLE
 10
48.39750000000002
 20
107.4510496735748
 30
0.0
 11
48.39750000000002
 21
110.4510496735748
 31
0.0
  0
LINE
  5
8F
  8
VISIBLE
 10
48.39750000000002
 20
110.4510496735748
 30
0.0
 11
60.89750000000002
 21
110.4510496735748
 31
0.0
  0
LINE
  5
90
  8
VISIBLE
 10
60.89750000000002
 20
110.4510496735748
 30
0.0
 11
60.89750000000001
 21
107.4510496735748
 31
0.0
  0
LINE
  5
91
  8
VISIBLE
 10
105.8975
 20
107.4510496735748
 30
0.0
 11
105.8975
 21
110.4510496735748
 31
0.0
  0
LINE
  5
92
  8
VISIBLE
 10
105.8975
 20
110.4510496735748
 30
0.0
 11
115.8975
 21
110.4510496735748
 31
0.0
  0
LINE
  5
93
  8
VISIBLE
 10
115.8975
 20
107.4510496735748
 30
0.0
 11
115.8975
 21
110.4510496735748
 31
0.0
  0
LINE
  5
94
  8
VISIBLE
 10
123.8475
 20
107.4510496735748
 30
0.0
 11
115.8975
 21
107.4510496735748
 31
0.0
  0
LINE
  5
95
  8
VISIBLE
 10
123.8475
 20
86.45104967357477
 30
0.0
 11
123.8475
 21
107.4510496735748
 31
0.0
  0
LINE
  5
96
  8
VISIBLE
 10
123.8475
 20
86.45104967357477
 30
0.0
 11
115.8975
 21
86.45104967357477
 31
0.0
  0
LINE
  5
97
  8
VISIBLE
 10
115.8975
 20
86.45104967357477
 30
0.0
 11
115.8975
 21
83.45104967357474
 31
0.0
  0
LINE
  5
98
  8
VISIBLE
 10
105.8975
 20
83.45104967357474
 30
0.0
 11
115.8975
 21
83.45104967357474
 31
0.0
  0
LINE
  5
99
  8
VISIBLE
 10
105.8975
 20
86.45104967357477
 30
0.0
 11
105.8975
 21
83.45104967357474
 31
0.0
  0
LINE
  5
9A
  8
VISIBLE
 10
77.89750000000002
 20
70.45104967357477
 30
0.0
 11
77.89750000000002
 21
86.45104967357477
 31
0.0
  0
LINE
  5
9B
  8
VISIBLE
 10
80.89750000000002
 20
70.45104967357477
 30
0.0
 11
77.89750000000002
 21
70.45104967357477
 31
0.0
  0
LINE
  5
9C
  8
VISIBLE
 10
80.89750000000002
 20
70.45104967357477
 30
0.0
 11
80.89750000000002
 21
40.45104967357477
 31
0.0
  0
LINE
  5
9D
  8
VISIBLE
 10
80.89750000000002
 20
40.45104967357477
 30
0.0
 11
77.89750000000002
 21
40.45104967357477
 31
0.0
  0
LINE
  5
9E
  8
VISIBLE
 10
105.8975
 20
24.45104967357477
 30
0.0
 11
105.8975
 21
27.45104967357477
 31
0.0
  0
LINE
  5
9F
  8
VISIBLE
 10
105.8975
 20
27.45104967357477
 30
0.0
 11
115.8975
 21
27.45104967357477
 31
0.0
  0
LINE
  5
A0
  8
VISIBLE
 10
115.8975
 20
24.45104967357477
 30
0.0
 11
115.8975
 21
27.45104967357477
 31
0.0
  0
LINE
  5
A1
  8
VISIBLE
 10
123.8475
 20
24.45104967357477
 30
0.0
 11
115.8975
 21
24.45104967357477
 31
0.0
  0
LINE
  5
A2
  8
VISIBLE
 10
123.8475
 20
3.451049673574758
 30
0.0
 11
123.8475
 21
24.45104967357477
 31
0.0
  0
LINE
  5
A3
  8
VISIBLE
 10
123.8475
 20
3.451049673574758
 30
0.0
 11
115.8975
 21
3.451049673574751
 31
0.0
  0
LINE
  5
A4
  8
VISIBLE
 10
115.8975
 20
3.451049673574751
 30
0.0
 11
115.8975
 21
0.451049673574758
 31
0.0
  0
LINE
  5
A5
  8
VISIBLE
 10
105.8975
 20
0.451049673574758
 30
0.0
 11
115.8975
 21
0.451049673574758
 31
0.0
  0
LINE
  5
A6
  8
VISIBLE
 10
105.8975
 20
3.451049673574751
 30
0.0
 11
105.8975
 21
0.451049673574758
 31
0.0
  0
LINE
  5
A7
  8
VISIBLE
 10
60.89749999999999
 20
0.4510496735747722
 30
0.0
 11
60.89749999999999
 21
3.451049673574765
 31
0.0
  0
LINE
  5
A8
  8
VISIBLE
 10
48.39749999999999
 20
0.4510496735747722
 30
0.0
 11
60.89749999999999
 21
0.4510496735747722
 31
0.0
  0
LINE
  5
A9
  8
VISIBLE
 10
48.39749999999999
 20
3.451049673574765
 30
0.0
 11
48.39749999999999
 21
0.4510496735747722
 31
0.0
  0
LINE
  5
AA
  8
VISIBLE
 10
48.39749999999999
 20
3.451049673574765
 30
0.0
 11
25.89749999999998
 21
3.451049673574772
 31
0.0
  0
LINE
  5
AB
  8
VISIBLE
 10
25.89749999999999
 20
0.4510496735747722
 30
0.0
 11
25.89749999999998
 21
3.451049673574772
 31
0.0
  0
LINE
  5
AC
  8
VISIBLE
 10
5.897500000000008
 20
0.4510496735747722
 30
0.0
 11
25.89749999999999
 21
0.4510496735747722
 31
0.0
  0
LINE
  5
AD
  8
VISIBLE
 10
5.897500000000008
 20
0.4510496735747722
 30
0.0
 11
5.897500000000008
 21
24.45104967357479
 31
0.0
  0
LINE
  5
AE
  8
VISIBLE
 10
5.897500000000008
 20
24.45104967357479
 30
0.0
 11
8.897500000000015
 21
24.45104967357479
 31
0.0
  0
LINE
  5
AF
  8
VISIBLE
 10
77.89750000000001
 20
24.45104967357477
 30
0.0
 11
77.89750000000002
 21
40.45104967357477
 31
0.0
  0
LINE
  5
B0
  8
VISIBLE
 10
8.897500000000015
 20
24.45104967357479
 30
0.0
 11
8.897500000000022
 21
40.45104967357479
 31
0.0
  0
LINE
  5
B1
  8
VISIBLE
 10
105.8975
 20
86.45104967357477
 30
0.0
 11
77.89750000000002
 21
86.45104967357477
 31
0.0
  0
LINE
  5
B2
  8
VISIBLE
 10
105.8975
 20
24.45104967357477
 30
0.0
 11
77.89750000000001
 21
24.45104967357477
 31
0.0
  0
LINE
  5
B3
  8
VISIBLE
 10
105.8975
 20
107.4510496735748
 30
0.0
 11
60.89750000000001
 21
107.4510496735748
 31
0.0
  0
LINE
  5
B4
  8
VISIBLE
 10
105.8975
 20
3.451049673574751
 30
0.0
 11
60.89749999999999
 21
3.451049673574765
 31
0.0
  0
LINE
  5
B7
  8
VISIBLE
 10
248.4100128532825
 20
64.80552716641208
 30
0.0
 11
249.4100128532825
 21
64.80552716641208
 31
0.0
  0
LINE
  5
B8
  8
VISIBLE
 10
249.4100128532825
 20
64.80552716641208
 30
0.0
 11
249.4100128532825
 21
67.30552716641208
 31
0.0
  0
LINE
  5
B9
  8
VISIBLE
 10
248.4100128532825
 20
67.30552716641208
 30
0.0
 11
249.4100128532825
 21
67.30552716641208
 31
0.0
  0
LINE
  5
BA
  8
VISIBLE
 10
248.4100128532825
 20
64.80552716641208
 30
0.0
 11
248.4100128532825
 21
67.30552716641208
 31
0.0
  0
LINE
  5
BB
  8
VISIBLE
 10
258.8100128532826
 20
39.05552716641208
 30
0.0
 11
258.8100128532826
 21
40.05552716641208
 31
0.0
  0
LINE
  5
BC
  8
VISIBLE
 10
258.8100128532826
 20
40.05552716641208
 30
0.0
 11
256.3100128532826
 21
40.05552716641208
 31
0.0
  0
LINE
  5
BD
  8
VISIBLE
 10
256.3100128532826
 20
39.05552716641208
 30
0.0
 11
256.3100128532826
 21
40.05552716641208
 31
0.0
  0
LINE
  5
BE
  8
VISIBLE
 10
258.8100128532826
 20
39.05552716641208
 30
0.0
 11
256.3100128532826
 21
39.05552716641208
 31
0.0
  0
LINE
  5
BF
  8
VISIBLE
 10
268.7100128532825
 20
81.05552716641208
 30
0.0
 11
268.7100128532825
 21
51.05552716641208
 31
0.0
  0
LINE
  5
C0
  8
VISIBLE
 10
268.7100128532825
 20
51.05552716641208
 30
0.0
 11
271.7100128532826
 21
51.05552716641208
 31
0.0
  0
LINE
  5
C1
  8
VISIBLE
 10
271.7100128532826
 20
51.05552716641208
 30
0.0
 11
271.7100128532826
 21
38.05552716641208
 31
0.0
  0
LINE
  5
C2
  8
VISIBLE
 10
271.7100128532826
 20
38.05552716641208
 30
0.0
 11
262.5600128532826
 21
38.05552716641208
 31
0.0
  0
LINE
  5
C3
  8
VISIBLE
 10
262.5600128532826
 20
35.05552716641208
 30
0.0
 11
262.5600128532826
 21
38.05552716641208
 31
0.0
  0
LINE
  5
C4
  8
VISIBLE
 10
252.5600128532826
 20
35.05552716641208
 30
0.0
 11
262.5600128532826
 21
35.05552716641208
 31
0.0
  0
LINE
  5
C5
  8
VISIBLE
 10
252.5600128532826
 20
35.05552716641208
 30
0.0
 11
252.5600128532826
 21
38.05552716641208
 31
0.0
  0
LINE
  5
C6
  8
VISIBLE
 10
252.5600128532826
 20
38.05552716641208
 30
0.0
 11
243.4100128532826
 21
38.05552716641208
 31
0.0
  0
LINE
  5
C7
  8
VISIBLE
 10
243.4100128532826
 20
51.05552716641207
 30
0.0
 11
246.4100128532825
 21
51.05552716641207
 31
0.0
  0
LINE
  5
C8
  8
VISIBLE
 10
246.4100128532825
 20
51.05552716641207
 30
0.0
 11
246.4100128532825
 21
81.05552716641208
 31
0.0
  0
LINE
  5
C9
  8
VISIBLE
 10
246.4100128532825
 20
81.05552716641208
 30
0.0
 11
243.4100128532826
 21
81.05552716641208
 31
0.0
  0
LINE
  5
CA
  8
VISIBLE
 10
243.4100128532826
 20
94.05552716641208
 30
0.0
 11
243.4100128532826
 21
81.05552716641208
 31
0.0
  0
LINE
  5
CB
  8
VISIBLE
 10
252.5600128532826
 20
94.05552716641208
 30
0.0
 11
243.4100128532826
 21
94.05552716641208
 31
0.0
  0
LINE
  5
CC
  8
VISIBLE
 10
252.5600128532826
 20
97.05552716641208
 30
0.0
 11
252.5600128532826
 21
94.05552716641208
 31
0.0
  0
LINE
  5
CD
  8
VISIBLE
 10
252.5600128532826
 20
97.05552716641208
 30
0.0
 11
262.5600128532826
 21
97.05552716641208
 31
0.0
  0
LINE
  5
CE
  8
VISIBLE
 10
262.5600128532826
 20
97.05552716641208
 30
0.0
 11
262.5600128532826
 21
94.05552716641208
 31
0.0
  0
LINE
  5
CF
  8
VISIBLE
 10
271.7100128532826
 20
94.05552716641208
 30
0.0
 11
262.5600128532826
 21
94.05552716641208
 31
0.0
  0
LINE
  5
D0
  8
VISIBLE
 10
271.7100128532826
 20
94.05552716641208
 30
0.0
 11
271.7100128532826
 21
81.05552716641208
 31
0.0
  0
LINE
  5
D1
  8
VISIBLE
 10
271.7100128532826
 20
81.05552716641208
 30
0.0
 11
268.7100128532825
 21
81.05552716641208
 31
0.0
  0
LINE
  5
D2
  8
VISIBLE
 10
258.8100128532826
 20
92.05552716641208
 30
0.0
 11
256.3100128532826
 21
92.05552716641208
 31
0.0
  0
LINE
  5
D3
  8
VISIBLE
 10
258.8100128532826
 20
93.05552716641208
 30
0.0
 11
258.8100128532826
 21
92.05552716641208
 31
0.0
  0
LINE
  5
D4
  8
VISIBLE
 10
258.8100128532826
 20
93.05552716641208
 30
0.0
 11
256.3100128532826
 21
93.05552716641208
 31
0.0
  0
LINE
  5
D5
  8
VISIBLE
 10
256.3100128532826
 20
93.05552716641208
 30
0.0
 11
256.3100128532826
 21
92.05552716641208
 31
0.0
  0
LINE
  5
D6
  8
VISIBLE
 10
265.7100128532828
 20
64.80552716641208
 30
0.0
 11
265.7100128532828
 21
67.30552716641208
 31
0.0
  0
LINE
  5
D7
  8
VISIBLE
 10
266.7100128532828
 20
64.80552716641208
 30
0.0
 11
265.7100128532828
 21
64.80552716641208
 31
0.0
  0
LINE
  5
D8
  8
VISIBLE
 10
266.7100128532828
 20
64.80552716641208
 30
0.0
 11
266.7100128532828
 21
67.30552716641208
 31
0.0
  0
LINE
  5
D9
  8
VISIBLE
 10
266.7100128532828
 20
67.30552716641208
 30
0.0
 11
265.7100128532828
 21
67.30552716641208
 31
0.0
  0
LINE
  5
DA
  8
VISIBLE
 10
243.4100128532826
 20
51.05552716641207
 30
0.0
 11
243.4100128532826
 21
38.05552716641208
 31
0.0
  0
LINE
  5
DD
  8
VISIBLE
 10
140.3914025395201
 20
193.7555027695351
 30
0.0
 11
137.8914025395201
 21
193.7555027695351
 31
0.0
  0
LINE
  5
DE
  8
VISIBLE
 10
137.8914025395201
 20
192.7555027695351
 30
0.0
 11
137.8914025395201
 21
193.7555027695351
 31
0.0
  0
LINE
  5
DF
  8
VISIBLE
 10
140.3914025395201
 20
192.7555027695351
 30
0.0
 11
137.8914025395201
 21
192.7555027695351
 31
0.0
  0
LINE
  5
E0
  8
VISIBLE
 10
140.3914025395201
 20
192.7555027695351
 30
0.0
 11
140.3914025395201
 21
193.7555027695351
 31
0.0
  0
LINE
  5
E1
  8
VISIBLE
 10
137.8914025395201
 20
176.4555027695351
 30
0.0
 11
137.8914025395201
 21
175.4555027695351
 31
0.0
  0
LINE
  5
E2
  8
VISIBLE
 10
140.3914025395201
 20
175.4555027695351
 30
0.0
 11
137.8914025395201
 21
175.4555027695351
 31
0.0
  0
LINE
  5
E3
  8
VISIBLE
 10
140.3914025395201
 20
176.4555027695351
 30
0.0
 11
140.3914025395201
 21
175.4555027695351
 31
0.0
  0
LINE
  5
E4
  8
VISIBLE
 10
140.3914025395201
 20
176.4555027695351
 30
0.0
 11
137.8914025395201
 21
176.4555027695351
 31
0.0
  0
LINE
  5
E5
  8
VISIBLE
 10
90.14140253952009
 20
185.8555027695351
 30
0.0
 11
89.14140253952009
 21
185.8555027695351
 31
0.0
  0
LINE
  5
E6
  8
VISIBLE
 10
89.14140253952009
 20
183.3555027695351
 30
0.0
 11
89.14140253952009
 21
185.8555027695351
 31
0.0
  0
LINE
  5
E7
  8
VISIBLE
 10
90.14140253952009
 20
183.3555027695351
 30
0.0
 11
89.14140253952009
 21
183.3555027695351
 31
0.0
  0
LINE
  5
E8
  8
VISIBLE
 10
90.14140253952009
 20
183.3555027695351
 30
0.0
 11
90.14140253952009
 21
185.8555027695351
 31
0.0
  0
LINE
  5
E9
  8
VISIBLE
 10
189.1414025395201
 20
183.3555027695351
 30
0.0
 11
189.1414025395201
 21
185.8555027695351
 31
0.0
  0
LINE
  5
EA
  8
VISIBLE
 10
188.1414025395201
 20
185.8555027695351
 30
0.0
 11
189.1414025395201
 21
185.8555027695351
 31
0.0
  0
LINE
  5
EB
  8
VISIBLE
 10
188.1414025395201
 20
183.3555027695351
 30
0.0
 11
188.1414025395201
 21
185.8555027695351
 31
0.0
  0
LINE
  5
EC
  8
VISIBLE
 10
188.1414025395201
 20
183.3555027695351
 30
0.0
 11
189.1414025395201
 21
183.3555027695351
 31
0.0
  0
LINE
  5
ED
  8
VISIBLE
 10
124.1414025395201
 20
195.7555027695351
 30
0.0
 11
154.1414025395201
 21
195.7555027695351
 31
0.0
  0
LINE
  5
EE
  8
VISIBLE
 10
170.1414025395201
 20
198.7555027695351
 30
0.0
 11
154.1414025395201
 21
198.7555027695351
 31
0.0
  0
LINE
  5
EF
  8
VISIBLE
 10
170.1414025395201
 20
195.7555027695351
 30
0.0
 11
170.1414025395201
 21
198.7555027695351
 31
0.0
  0
LINE
  5
F0
  8
VISIBLE
 10
194.1414025395201
 20
195.7555027695351
 30
0.0
 11
170.1414025395201
 21
195.7555027695351
 31
0.0
  0
LINE
  5
F1
  8
VISIBLE
 10
194.1414025395201
 20
188.755502769535
 30
0.0
 11
194.1414025395201
 21
195.7555027695351
 31
0.0
  0
LINE
  5
F2
  8
VISIBLE
 10
191.1414025395201
 20
188.755502769535
 30
0.0
 11
194.1414025395201
 21
188.755502769535
 31
0.0
  0
LINE
  5
F3
  8
VISIBLE
 10
191.1414025395201
 20
180.4555027695351
 30
0.0
 11
191.1414025395201
 21
188.755502769535
 31
0.0
  0
LINE
  5
F4
  8
VISIBLE
 10
191.1414025395201
 20
180.4555027695351
 30
0.0
 11
194.1414025395201
 21
180.4555027695351
 31
0.0
  0
LINE
  5
F5
  8
VISIBLE
 10
194.1414025395201
 20
173.4555027695351
 30
0.0
 11
194.1414025395201
 21
180.4555027695351
 31
0.0
  0
LINE
  5
F6
  8
VISIBLE
 10
194.1414025395201
 20
173.4555027695351
 30
0.0
 11
170.1414025395201
 21
173.4555027695351
 31
0.0
  0
LINE
  5
F7
  8
VISIBLE
 10
170.1414025395201
 20
170.4555027695351
 30
0.0
 11
170.1414025395201
 21
173.4555027695351
 31
0.0
  0
LINE
  5
F8
  8
VISIBLE
 10
170.1414025395201
 20
170.4555027695351
 30
0.0
 11
154.1414025395201
 21
170.4555027695351
 31
0.0
  0
LINE
  5
F9
  8
VISIBLE
 10
154.1414025395201
 20
170.4555027695351
 30
0.0
 11
154.1414025395201
 21
173.4555027695351
 31
0.0
  0
LINE
  5
FA
  8
VISIBLE
 10
154.1414025395201
 20
173.4555027695351
 30
0.0
 11
124.1414025395201
 21
173.4555027695351
 31
0.0
  0
LINE
  5
FB
  8
VISIBLE
 10
124.1414025395201
 20
173.4555027695351
 30
0.0
 11
124.1414025395201
 21
170.4555027695351
 31
0.0
  0
LINE
  5
FC
  8
VISIBLE
 10
124.1414025395201
 20
170.4555027695351
 30
0.0
 11
108.1414025395201
 21
170.4555027695351
 31
0.0
  0
LINE
  5
FD
  8
VISIBLE
 10
108.1414025395201
 20
170.4555027695351
 30
0.0
 11
108.1414025395201
 21
173.4555027695351
 31
0.0
  0
LINE
  5
FE
  8
VISIBLE
 10
84.14140253952009
 20
173.4555027695351
 30
0.0
 11
108.1414025395201
 21
173.4555027695351
 31
0.0
  0
LINE
  5
FF
  8
VISIBLE
 10
84.14140253952009
 20
173.4555027695351
 30
0.0
 11
84.14140253952009
 21
180.455502769535
 31
0.0
  0
LINE
  5
100
  8
VISIBLE
 10
87.14140253952009
 20
180.4555027695351
 30
0.0
 11
84.14140253952009
 21
180.455502769535
 31
0.0
  0
LINE
  5
101
  8
VISIBLE
 10
87.14140253952009
 20
180.4555027695351
 30
0.0
 11
87.14140253952009
 21
188.755502769535
 31
0.0
  0
LINE
  5
102
  8
VISIBLE
 10
87.14140253952009
 20
188.755502769535
 30
0.0
 11
84.14140253952009
 21
188.755502769535
 31
0.0
  0
LINE
  5
103
  8
VISIBLE
 10
84.14140253952009
 20
188.755502769535
 30
0.0
 11
84.14140253952009
 21
195.7555027695351
 31
0.0
  0
LINE
  5
104
  8
VISIBLE
 10
84.14140253952009
 20
195.7555027695351
 30
0.0
 11
108.1414025395201
 21
195.7555027695351
 31
0.0
  0
LINE
  5
105
  8
VISIBLE
 10
108.1414025395201
 20
198.7555027695351
 30
0.0
 11
108.1414025395201
 21
195.7555027695351
 31
0.0
  0
LINE
  5
106
  8
VISIBLE
 10
124.1414025395201
 20
198.7555027695351
 30
0.0
 11
124.1414025395201
 21
195.7555027695351
 31
0.0
  0
LINE
  5
107
  8
VISIBLE
 10
124.1414025395201
 20
198.7555027695351
 30
0.0
 11
108.1414025395201
 21
198.7555027695351
 31
0.0
  0
LINE
  5
108
  8
VISIBLE
 10
154.1414025395201
 20
195.7555027695351
 30
0.0
 11
154.1414025395201
 21
198.7555027695351
 31
0.0
  0
LINE
  5
10B
  8
VISIBLE
 10
249.6149474437844
 20
168.9429864180719
 30
0.0
 11
249.6149474437844
 21
165.9429864180719
 31
0.0
  0
LINE
  5
10C
  8
VISIBLE
 10
239.6149474437844
 20
168.9429864180719
 30
0.0
 11
249.6149474437844
 21
168.9429864180719
 31
0.0
  0
LINE
  5
10D
  8
VISIBLE
 10
239.6149474437844
 20
165.9429864180719
 30
0.0
 11
239.6149474437844
 21
168.9429864180719
 31
0.0
  0
LINE
  5
10E
  8
VISIBLE
 10
249.6149474437844
 20
165.9429864180719
 30
0.0
 11
239.6149474437844
 21
165.9429864180719
 31
0.0
  0
LINE
  5
10F
  8
VISIBLE
 10
257.564947443785
 20
141.2929864180718
 30
0.0
 11
260.564947443785
 21
141.2929864180718
 31
0.0
  0
LINE
  5
110
  8
VISIBLE
 10
257.564947443785
 20
138.2929864180718
 30
0.0
 11
257.564947443785
 21
141.2929864180718
 31
0.0
  0
LINE
  5
111
  8
VISIBLE
 10
260.564947443785
 20
138.2929864180718
 30
0.0
 11
257.564947443785
 21
138.2929864180718
 31
0.0
  0
LINE
  5
112
  8
VISIBLE
 10
260.564947443785
 20
141.2929864180718
 30
0.0
 11
260.564947443785
 21
138.2929864180718
 31
0.0
  0
LINE
  5
113
  8
VISIBLE
 10
264.641196215635
 20
175.042986418072
 30
0.0
 11
263.6411962156349
 21
175.042986418072
 31
0.0
  0
LINE
  5
114
  8
VISIBLE
 10
263.6411962156349
 20
175.042986418072
 30
0.0
 11
263.6411962156349
 21
172.542986418072
 31
0.0
  0
LINE
  5
115
  8
VISIBLE
 10
264.641196215635
 20
172.542986418072
 30
0.0
 11
263.6411962156349
 21
172.542986418072
 31
0.0
  0
LINE
  5
116
  8
VISIBLE
 10
264.641196215635
 20
175.042986418072
 30
0.0
 11
264.641196215635
 21
172.542986418072
 31
0.0
  0
LINE
  5
117
  8
VISIBLE
 10
264.641196215635
 20
134.542986418072
 30
0.0
 11
264.641196215635
 21
137.0429864180721
 31
0.0
  0
LINE
  5
118
  8
VISIBLE
 10
264.641196215635
 20
137.0429864180721
 30
0.0
 11
263.641196215635
 21
137.042986418072
 31
0.0
  0
LINE
  5
119
  8
VISIBLE
 10
263.6411962156349
 20
134.542986418072
 30
0.0
 11
263.641196215635
 21
137.042986418072
 31
0.0
  0
LINE
  5
11A
  8
VISIBLE
 10
264.641196215635
 20
134.542986418072
 30
0.0
 11
263.6411962156349
 21
134.542986418072
 31
0.0
  0
LINE
  5
11B
  8
VISIBLE
 10
236.5043919279949
 20
179.9391093790381
 30
0.0
 11
234.6133490419031
 21
178.3038856013974
 31
0.0
  0
LINE
  5
11C
  8
VISIBLE
 10
235.8503024169386
 20
180.6955265334749
 30
0.0
 11
236.5043919279949
 21
179.9391093790381
 31
0.0
  0
LINE
  5
11D
  8
VISIBLE
 10
233.9592595308468
 20
179.0603027558342
 30
0.0
 11
235.8503024169386
 21
180.6955265334749
 31
0.0
  0
LINE
  5
11E
  8
VISIBLE
 10
234.6133490419031
 20
178.3038856013974
 30
0.0
 11
233.9592595308468
 21
179.0603027558342
 31
0.0
  0
LINE
  5
11F
  8
VISIBLE
 10
144.6149474437848
 20
156.042986418072
 30
0.0
 11
143.6149474437848
 21
156.042986418072
 31
0.0
  0
LINE
  5
120
  8
VISIBLE
 10
143.6149474437848
 20
153.542986418072
 30
0.0
 11
143.6149474437848
 21
156.042986418072
 31
0.0
  0
LINE
  5
121
  8
VISIBLE
 10
144.6149474437848
 20
153.542986418072
 30
0.0
 11
143.6149474437848
 21
153.542986418072
 31
0.0
  0
LINE
  5
122
  8
VISIBLE
 10
144.6149474437848
 20
153.542986418072
 30
0.0
 11
144.6149474437848
 21
156.042986418072
 31
0.0
  0
LINE
  5
123
  8
VISIBLE
 10
169.6149474437848
 20
145.642986418072
 30
0.0
 11
167.1149474437848
 21
145.642986418072
 31
0.0
  0
LINE
  5
124
  8
VISIBLE
 10
167.1149474437848
 20
144.642986418072
 30
0.0
 11
167.1149474437848
 21
145.642986418072
 31
0.0
  0
LINE
  5
125
  8
VISIBLE
 10
169.6149474437848
 20
144.642986418072
 30
0.0
 11
167.1149474437848
 21
144.642986418072
 31
0.0
  0
LINE
  5
126
  8
VISIBLE
 10
169.6149474437848
 20
144.642986418072
 30
0.0
 11
169.6149474437848
 21
145.642986418072
 31
0.0
  0
LINE
  5
127
  8
VISIBLE
 10
167.1149474437848
 20
164.9429864180721
 30
0.0
 11
167.1149474437848
 21
163.9429864180721
 31
0.0
  0
LINE
  5
128
  8
VISIBLE
 10
169.6149474437848
 20
163.9429864180721
 30
0.0
 11
167.1149474437848
 21
163.9429864180721
 31
0.0
  0
LINE
  5
129
  8
VISIBLE
 10
169.6149474437848
 20
164.9429864180721
 30
0.0
 11
169.6149474437848
 21
163.9429864180721
 31
0.0
  0
LINE
  5
12A
  8
VISIBLE
 10
169.6149474437848
 20
164.9429864180721
 30
0.0
 11
167.1149474437848
 21
164.9429864180721
 31
0.0
  0
LINE
  5
12B
  8
VISIBLE
 10
165.3149474437839
 20
152.7929864180717
 30
0.0
 11
165.3149474437839
 21
156.7929864180717
 31
0.0
  0
LINE
  5
12C
  8
VISIBLE
 10
166.8149474437839
 20
152.7929864180718
 30
0.0
 11
165.3149474437839
 21
152.7929864180717
 31
0.0
  0
LINE
  5
12D
  8
VISIBLE
 10
166.8149474437839
 20
156.7929864180718
 30
0.0
 11
166.8149474437839
 21
152.7929864180718
 31
0.0
  0
LINE
  5
12E
  8
VISIBLE
 10
165.3149474437839
 20
156.7929864180717
 30
0.0
 11
166.8149474437839
 21
156.7929864180718
 31
0.0
  0
CIRCLE
  5
12F
  8
VISIBLE
 10
186.3949474437838
 20
154.792986418072
 30
0.0
 40
2.0
  0
CIRCLE
  5
130
  8
VISIBLE
 10
197.6149474437839
 20
154.7929864180721
 30
0.0
 40
6.5
  0
CIRCLE
  5
131
  8
VISIBLE
 10
177.5149474437839
 20
163.5429864180718
 30
0.0
 40
1.5
  0
CIRCLE
  5
132
  8
VISIBLE
 10
177.5149474437839
 20
146.0429864180714
 30
0.0
 40
1.5
  0
LINE
  5
133
  8
VISIBLE
 10
254.8379172440189
 20
122.3587654567566
 30
0.0
 11
255.3812783639201
 21
121.5192663838687
 31
0.0
  0
LINE
  5
134
  8
VISIBLE
 10
255.3812783639201
 20
121.5192663838687
 30
0.0
 11
257.4800260461398
 21
122.8776691836219
 31
0.0
  0
LINE
  5
135
  8
VISIBLE
 10
256.9366649262385
 20
123.7171682565098
 30
0.0
 11
257.4800260461398
 21
122.8776691836219
 31
0.0
  0
LINE
  5
136
  8
VISIBLE
 10
256.9366649262385
 20
123.7171682565098
 30
0.0
 11
254.8379172440189
 21
122.3587654567566
 31
0.0
  0
LINE
  5
137
  8
VISIBLE
 10
236.5043919279949
 20
129.646863457106
 30
0.0
 11
234.6133490419031
 21
131.2820872347467
 31
0.0
  0
LINE
  5
138
  8
VISIBLE
 10
234.6133490419031
 20
131.2820872347467
 30
0.0
 11
233.9592595308468
 21
130.5256700803099
 31
0.0
  0
LINE
  5
139
  8
VISIBLE
 10
233.9592595308468
 20
130.5256700803099
 30
0.0
 11
235.8503024169386
 21
128.8904463026692
 31
0.0
  0
LINE
  5
13A
  8
VISIBLE
 10
235.8503024169386
 20
128.8904463026692
 30
0.0
 11
236.5043919279949
 21
129.646863457106
 31
0.0
  0
LINE
  5
13B
  8
VISIBLE
 10
257.4800260461398
 20
186.7083036525221
 30
0.0
 11
255.3812783639201
 21
188.0667064522754
 31
0.0
  0
LINE
  5
13C
  8
VISIBLE
 10
254.8379172440189
 20
187.2272073793875
 30
0.0
 11
255.3812783639201
 21
188.0667064522754
 31
0.0
  0
LINE
  5
13D
  8
VISIBLE
 10
254.8379172440189
 20
187.2272073793875
 30
0.0
 11
256.9366649262385
 21
185.8688045796343
 31
0.0
  0
LINE
  5
13E
  8
VISIBLE
 10
256.9366649262385
 20
185.8688045796343
 30
0.0
 11
257.4800260461398
 21
186.7083036525221
 31
0.0
  0
LINE
  5
13F
  8
VISIBLE
 10
260.564947443785
 20
168.2929864180723
 30
0.0
 11
260.564947443785
 21
171.2929864180723
 31
0.0
  0
LINE
  5
140
  8
VISIBLE
 10
260.564947443785
 20
171.2929864180723
 30
0.0
 11
257.564947443785
 21
171.2929864180723
 31
0.0
  0
LINE
  5
141
  8
VISIBLE
 10
257.564947443785
 20
171.2929864180723
 30
0.0
 11
257.564947443785
 21
168.2929864180723
 31
0.0
  0
LINE
  5
142
  8
VISIBLE
 10
257.564947443785
 20
168.2929864180723
 30
0.0
 11
260.564947443785
 21
168.2929864180723
 31
0.0
  0
LINE
  5
143
  8
VISIBLE
 10
159.6149474437848
 20
143.642986418072
 30
0.0
 11
159.6149474437848
 21
140.642986418072
 31
0.0
  0
LINE
  5
144
  8
VISIBLE
 10
159.6149474437848
 20
143.642986418072
 30
0.0
 11
142.6149474437849
 21
143.642986418072
 31
0.0
  0
LINE
  5
145
  8
VISIBLE
 10
142.6149474437849
 20
150.642986418072
 30
0.0
 11
142.6149474437849
 21
143.642986418072
 31
0.0
  0
LINE
  5
146
  8
VISIBLE
 10
142.6149474437849
 20
150.642986418072
 30
0.0
 11
139.6149474437848
 21
150.642986418072
 31
0.0
  0
LINE
  5
147
  8
VISIBLE
 10
139.6149474437848
 20
150.642986418072
 30
0.0
 11
139.6149474437848
 21
158.9429864180721
 31
0.0
  0
LINE
  5
148
  8
VISIBLE
 10
142.6149474437849
 20
158.9429864180721
 30
0.0
 11
139.6149474437848
 21
158.9429864180721
 31
0.0
  0
LINE
  5
149
  8
VISIBLE
 10
142.6149474437849
 20
158.9429864180721
 30
0.0
 11
142.6149474437849
 21
165.9429864180721
 31
0.0
  0
LINE
  5
14A
  8
VISIBLE
 10
159.6149474437848
 20
165.9429864180721
 30
0.0
 11
142.6149474437849
 21
165.9429864180721
 31
0.0
  0
LINE
  5
14B
  8
VISIBLE
 10
159.6149474437848
 20
165.9429864180721
 30
0.0
 11
159.6149474437848
 21
168.9429864180721
 31
0.0
  0
LINE
  5
14C
  8
VISIBLE
 10
159.6149474437848
 20
168.9429864180721
 30
0.0
 11
182.1149474437848
 21
168.9429864180721
 31
0.0
  0
LINE
  5
14D
  8
VISIBLE
 10
182.1149474437848
 20
165.9429864180721
 30
0.0
 11
182.1149474437848
 21
168.9429864180721
 31
0.0
  0
LINE
  5
14E
  8
VISIBLE
 10
194.6149474437848
 20
165.9429864180721
 30
0.0
 11
182.1149474437848
 21
165.9429864180721
 31
0.0
  0
LINE
  5
14F
  8
VISIBLE
 10
194.6149474437848
 20
165.9429864180721
 30
0.0
 11
194.6149474437848
 21
168.9429864180721
 31
0.0
  0
LINE
  5
150
  8
VISIBLE
 10
194.6149474437848
 20
168.9429864180721
 30
0.0
 11
214.6149474437848
 21
168.9429864180721
 31
0.0
  0
LINE
  5
151
  8
VISIBLE
 10
227.095830491991
 20
179.7354633505005
 30
0.0
 11
214.6149474437848
 21
168.9429864180721
 31
0.0
  0
LINE
  5
152
  8
VISIBLE
 10
229.0580990251598
 20
177.4662118871903
 30
0.0
 11
227.095830491991
 21
179.7354633505005
 31
0.0
  0
LINE
  5
153
  8
VISIBLE
 10
238.1351048784006
 20
185.3152860198656
 30
0.0
 11
229.0580990251598
 21
177.4662118871903
 31
0.0
  0
LINE
  5
154
  8
VISIBLE
 10
238.1351048784006
 20
185.3152860198656
 30
0.0
 11
236.1728363452318
 21
187.5845374831758
 31
0.0
  0
LINE
  5
155
  8
VISIBLE
 10
248.6537193934379
 20
198.3770144156043
 30
0.0
 11
236.1728363452318
 21
187.5845374831758
 31
0.0
  0
LINE
  5
156
  8
VISIBLE
 10
256.6289605858728
 20
193.215083776542
 30
0.0
 11
248.6537193934379
 21
198.3770144156043
 31
0.0
  0
LINE
  5
157
  8
VISIBLE
 10
254.9988772261689
 20
190.6965865578784
 30
0.0
 11
256.6289605858728
 21
193.215083776542
 31
0.0
  0
LINE
  5
158
  8
VISIBLE
 10
254.9988772261689
 20
190.6965865578784
 30
0.0
 11
260.0358716634962
 21
187.4364198384706
 31
0.0
  0
LINE
  5
159
  8
VISIBLE
 10
260.0358716634962
 20
187.4364198384706
 30
0.0
 11
261.6659550232001
 21
189.9549170571343
 31
0.0
  0
LINE
  5
15A
  8
VISIBLE
 10
269.641196215635
 20
184.792986418072
 30
0.0
 11
261.6659550232001
 21
189.9549170571343
 31
0.0
  0
LINE
  5
15B
  8
VISIBLE
 10
269.641196215635
 20
178.7929864180721
 30
0.0
 11
269.641196215635
 21
184.792986418072
 31
0.0
  0
LINE
  5
15C
  8
VISIBLE
 10
266.641196215635
 20
178.792986418072
 30
0.0
 11
269.641196215635
 21
178.7929864180721
 31
0.0
  0
LINE
  5
15D
  8
VISIBLE
 10
266.641196215635
 20
178.792986418072
 30
0.0
 11
266.641196215635
 21
168.792986418072
 31
0.0
  0
LINE
  5
15E
  8
VISIBLE
 10
266.641196215635
 20
168.792986418072
 30
0.0
 11
269.641196215635
 21
168.7929864180721
 31
0.0
  0
LINE
  5
15F
  8
VISIBLE
 10
269.641196215635
 20
140.792986418072
 30
0.0
 11
269.641196215635
 21
168.7929864180721
 31
0.0
  0
LINE
  5
160
  8
VISIBLE
 10
266.641196215635
 20
140.792986418072
 30
0.0
 11
269.641196215635
 21
140.792986418072
 31
0.0
  0
LINE
  5
161
  8
VISIBLE
 10
266.641196215635
 20
130.792986418072
 30
0.0
 11
266.641196215635
 21
140.792986418072
 31
0.0
  0
LINE
  5
162
  8
VISIBLE
 10
266.641196215635
 20
130.792986418072
 30
0.0
 11
269.641196215635
 21
130.792986418072
 31
0.0
  0
LINE
  5
163
  8
VISIBLE
 10
269.641196215635
 20
124.7929864180721
 30
0.0
 11
269.641196215635
 21
130.792986418072
 31
0.0
  0
LINE
  5
164
  8
VISIBLE
 10
269.641196215635
 20
124.7929864180721
 30
0.0
 11
261.6659550232001
 21
119.6310557790098
 31
0.0
  0
LINE
  5
165
  8
VISIBLE
 10
260.0358716634962
 20
122.1495529976735
 30
0.0
 11
261.6659550232001
 21
119.6310557790098
 31
0.0
  0
LINE
  5
166
  8
VISIBLE
 10
260.0358716634962
 20
122.1495529976735
 30
0.0
 11
254.9988772261689
 21
118.8893862782657
 31
0.0
  0
LINE
  5
167
  8
VISIBLE
 10
254.9988772261689
 20
118.8893862782657
 30
0.0
 11
256.6289605858728
 21
116.370889059602
 31
0.0
  0
LINE
  5
168
  8
VISIBLE
 10
256.6289605858728
 20
116.370889059602
 30
0.0
 11
248.6537193934379
 21
111.2089584205398
 31
0.0
  0
LINE
  5
169
  8
VISIBLE
 10
236.1728363452318
 20
122.0014353529683
 30
0.0
 11
248.6537193934379
 21
111.2089584205398
 31
0.0
  0
LINE
  5
16A
  8
VISIBLE
 10
238.1351048784006
 20
124.2706868162785
 30
0.0
 11
236.1728363452318
 21
122.0014353529683
 31
0.0
  0
LINE
  5
16B
  8
VISIBLE
 10
238.1351048784006
 20
124.2706868162785
 30
0.0
 11
229.0580990251598
 21
132.1197609489538
 31
0.0
  0
LINE
  5
16C
  8
VISIBLE
 10
229.0580990251598
 20
132.1197609489538
 30
0.0
 11
227.095830491991
 21
129.8505094856436
 31
0.0
  0
LINE
  5
16D
  8
VISIBLE
 10
214.6149474437848
 20
140.642986418072
 30
0.0
 11
227.095830491991
 21
129.8505094856436
 31
0.0
  0
LINE
  5
16E
  8
VISIBLE
 10
194.6149474437848
 20
140.642986418072
 30
0.0
 11
214.6149474437848
 21
140.642986418072
 31
0.0
  0
LINE
  5
16F
  8
VISIBLE
 10
194.6149474437848
 20
143.642986418072
 30
0.0
 11
194.6149474437848
 21
140.642986418072
 31
0.0
  0
LINE
  5
170
  8
VISIBLE
 10
194.6149474437848
 20
143.642986418072
 30
0.0
 11
182.1149474437848
 21
143.6429864180721
 31
0.0
  0
LINE
  5
171
  8
VISIBLE
 10
182.1149474437848
 20
143.6429864180721
 30
0.0
 11
182.1149474437848
 21
140.6429864180721
 31
0.0
  0
LINE
  5
172
  8
VISIBLE
 10
159.6149474437848
 20
140.642986418072
 30
0.0
 11
182.1149474437848
 21
140.6429864180721
 31
0.0
  0
LINE
  5
175
  8
VISIBLE
 10
28.58798997238162
 20
140.5242161295712
 30
0.0
 11
28.58798997238162
 21
143.5242161295712
 31
0.0
  0
LINE
  5
176
  8
VISIBLE
 10
38.58798997238159
 20
140.5242161295712
 30
0.0
 11
28.58798997238162
 21
140.5242161295712
 31
0.0
  0
LINE
  5
177
  8
VISIBLE
 10
38.58798997238159
 20
143.5242161295712
 30
0.0
 11
38.58798997238159
 21
140.5242161295712
 31
0.0
  0
LINE
  5
178
  8
VISIBLE
 10
28.58798997238162
 20
143.5242161295712
 30
0.0
 11
38.58798997238159
 21
143.5242161295712
 31
0.0
  0
LINE
  5
179
  8
VISIBLE
 10
20.63798997238101
 20
168.1742161295712
 30
0.0
 11
17.63798997238101
 21
168.1742161295712
 31
0.0
  0
LINE
  5
17A
  8
VISIBLE
 10
20.63798997238101
 20
171.1742161295712
 30
0.0
 11
20.63798997238101
 21
168.1742161295712
 31
0.0
  0
LINE
  5
17B
  8
VISIBLE
 10
17.63798997238101
 20
171.1742161295712
 30
0.0
 11
20.63798997238101
 21
171.1742161295712
 31
0.0
  0
LINE
  5
17C
  8
VISIBLE
 10
17.63798997238101
 20
168.1742161295712
 30
0.0
 11
17.63798997238101
 21
171.1742161295712
 31
0.0
  0
LINE
  5
17D
  8
VISIBLE
 10
13.56174120053105
 20
134.4242161295711
 30
0.0
 11
14.56174120053106
 21
134.4242161295711
 31
0.0
  0
LINE
  5
17E
  8
VISIBLE
 10
14.56174120053106
 20
134.4242161295711
 30
0.0
 11
14.56174120053106
 21
136.9242161295711
 31
0.0
  0
LINE
  5
17F
  8
VISIBLE
 10
13.56174120053105
 20
136.9242161295711
 30
0.0
 11
14.56174120053106
 21
136.9242161295711
 31
0.0
  0
LINE
  5
180
  8
VISIBLE
 10
13.56174120053105
 20
134.4242161295711
 30
0.0
 11
13.56174120053105
 21
136.9242161295711
 31
0.0
  0
LINE
  5
181
  8
VISIBLE
 10
13.56174120053105
 20
174.924216129571
 30
0.0
 11
13.56174120053105
 21
172.424216129571
 31
0.0
  0
LINE
  5
182
  8
VISIBLE
 10
13.56174120053105
 20
172.424216129571
 30
0.0
 11
14.56174120053105
 21
172.4242161295711
 31
0.0
  0
LINE
  5
183
  8
VISIBLE
 10
14.56174120053106
 20
174.924216129571
 30
0.0
 11
14.56174120053105
 21
172.4242161295711
 31
0.0
  0
LINE
  5
184
  8
VISIBLE
 10
13.56174120053105
 20
174.924216129571
 30
0.0
 11
14.56174120053106
 21
174.924216129571
 31
0.0
  0
LINE
  5
185
  8
VISIBLE
 10
41.6985454881711
 20
129.528093168605
 30
0.0
 11
43.58958837426293
 21
131.1633169462457
 31
0.0
  0
LINE
  5
186
  8
VISIBLE
 10
42.35263499922737
 20
128.7716760141682
 30
0.0
 11
41.6985454881711
 21
129.528093168605
 31
0.0
  0
LINE
  5
187
  8
VISIBLE
 10
44.24367788531919
 20
130.4068997918089
 30
0.0
 11
42.35263499922737
 21
128.7716760141682
 31
0.0
  0
LINE
  5
188
  8
VISIBLE
 10
43.58958837426293
 20
131.1633169462457
 30
0.0
 11
44.24367788531919
 21
130.4068997918089
 31
0.0
  0
LINE
  5
189
  8
VISIBLE
 10
133.5879899723811
 20
153.4242161295711
 30
0.0
 11
134.5879899723811
 21
153.4242161295711
 31
0.0
  0
LINE
  5
18A
  8
VISIBLE
 10
134.5879899723811
 20
155.9242161295711
 30
0.0
 11
134.5879899723811
 21
153.4242161295711
 31
0.0
  0
LINE
  5
18B
  8
VISIBLE
 10
133.5879899723811
 20
155.9242161295711
 30
0.0
 11
134.5879899723811
 21
155.9242161295711
 31
0.0
  0
LINE
  5
18C
  8
VISIBLE
 10
133.5879899723811
 20
155.9242161295711
 30
0.0
 11
133.5879899723811
 21
153.4242161295711
 31
0.0
  0
LINE
  5
18D
  8
VISIBLE
 10
108.5879899723812
 20
163.8242161295711
 30
0.0
 11
111.0879899723812
 21
163.8242161295711
 31
0.0
  0
LINE
  5
18E
  8
VISIBLE
 10
111.0879899723812
 20
164.8242161295711
 30
0.0
 11
111.0879899723812
 21
163.8242161295711
 31
0.0
  0
LINE
  5
18F
  8
VISIBLE
 10
108.5879899723812
 20
164.8242161295711
 30
0.0
 11
111.0879899723812
 21
164.8242161295711
 31
0.0
  0
LINE
  5
190
  8
VISIBLE
 10
108.5879899723812
 20
164.8242161295711
 30
0.0
 11
108.5879899723812
 21
163.8242161295711
 31
0.0
  0
LINE
  5
191
  8
VISIBLE
 10
111.0879899723812
 20
144.524216129571
 30
0.0
 11
111.0879899723812
 21
145.5242161295711
 31
0.0
  0
LINE
  5
192
  8
VISIBLE
 10
108.5879899723812
 20
145.5242161295711
 30
0.0
 11
111.0879899723812
 21
145.5242161295711
 31
0.0
  0
LINE
  5
193
  8
VISIBLE
 10
108.5879899723812
 20
144.524216129571
 30
0.0
 11
108.5879899723812
 21
145.5242161295711
 31
0.0
  0
LINE
  5
194
  8
VISIBLE
 10
108.5879899723812
 20
144.524216129571
 30
0.0
 11
111.0879899723812
 21
144.524216129571
 31
0.0
  0
LINE
  5
195
  8
VISIBLE
 10
112.8879899723821
 20
156.6742161295714
 30
0.0
 11
112.8879899723821
 21
152.6742161295714
 31
0.0
  0
LINE
  5
196
  8
VISIBLE
 10
111.3879899723821
 20
156.6742161295713
 30
0.0
 11
112.8879899723821
 21
156.6742161295714
 31
0.0
  0
LINE
  5
197
  8
VISIBLE
 10
111.3879899723821
 20
152.6742161295713
 30
0.0
 11
111.3879899723821
 21
156.6742161295713
 31
0.0
  0
LINE
  5
198
  8
VISIBLE
 10
112.8879899723821
 20
152.6742161295714
 30
0.0
 11
111.3879899723821
 21
152.6742161295713
 31
0.0
  0
CIRCLE
  5
199
  8
VISIBLE
 10
91.80798997238215
 20
154.6742161295711
 30
0.0
 40
2.0
  0
CIRCLE
  5
19A
  8
VISIBLE
 10
80.58798997238215
 20
154.674216129571
 30
0.0
 40
6.5
  0
CIRCLE
  5
19B
  8
VISIBLE
 10
100.6879899723821
 20
145.9242161295712
 30
0.0
 40
1.5
  0
CIRCLE
  5
19C
  8
VISIBLE
 10
100.6879899723821
 20
163.4242161295717
 30
0.0
 40
1.5
  0
LINE
  5
19D
  8
VISIBLE
 10
23.36502017214717
 20
187.1084370908865
 30
0.0
 11
22.82165905224589
 21
187.9479361637744
 31
0.0
  0
LINE
  5
19E
  8
VISIBLE
 10
22.82165905224589
 20
187.9479361637744
 30
0.0
 11
20.72291137002618
 21
186.5895333640211
 31
0.0
  0
LINE
  5
19F
  8
VISIBLE
 10
21.26627248992747
 20
185.7500342911333
 30
0.0
 11
20.72291137002618
 21
186.5895333640211
 31
0.0
  0
LINE
  5
1A0
  8
VISIBLE
 10
21.26627248992747
 20
185.7500342911333
 30
0.0
 11
23.36502017214717
 21
187.1084370908865
 31
0.0
  0
LINE
  5
1A1
  8
VISIBLE
 10
41.69854548817109
 20
179.8203390905371
 30
0.0
 11
43.58958837426293
 21
178.1851153128964
 31
0.0
  0
LINE
  5
1A2
  8
VISIBLE
 10
43.58958837426293
 20
178.1851153128964
 30
0.0
 11
44.2436778853192
 21
178.9415324673332
 31
0.0
  0
LINE
  5
1A3
  8
VISIBLE
 10
44.2436778853192
 20
178.9415324673332
 30
0.0
 11
42.35263499922737
 21
180.5767562449738
 31
0.0
  0
LINE
  5
1A4
  8
VISIBLE
 10
42.35263499922737
 20
180.5767562449738
 30
0.0
 11
41.69854548817109
 21
179.8203390905371
 31
0.0
  0
LINE
  5
1A5
  8
VISIBLE
 10
20.72291137002618
 20
122.758898895121
 30
0.0
 11
22.82165905224588
 21
121.4004960953677
 31
0.0
  0
LINE
  5
1A6
  8
VISIBLE
 10
23.36502017214717
 20
122.2399951682556
 30
0.0
 11
22.82165905224588
 21
121.4004960953677
 31
0.0
  0
LINE
  5
1A7
  8
VISIBLE
 10
23.36502017214717
 20
122.2399951682556
 30
0.0
 11
21.26627248992747
 21
123.5983979680088
 31
0.0
  0
LINE
  5
1A8
  8
VISIBLE
 10
21.26627248992747
 20
123.5983979680088
 30
0.0
 11
20.72291137002618
 21
122.758898895121
 31
0.0
  0
LINE
  5
1A9
  8
VISIBLE
 10
17.63798997238101
 20
141.1742161295708
 30
0.0
 11
17.63798997238101
 21
138.1742161295708
 31
0.0
  0
LINE
  5
1AA
  8
VISIBLE
 10
17.63798997238101
 20
138.1742161295708
 30
0.0
 11
20.63798997238101
 21
138.1742161295708
 31
0.0
  0
LINE
  5
1AB
  8
VISIBLE
 10
20.63798997238101
 20
138.1742161295708
 30
0.0
 11
20.63798997238101
 21
141.1742161295708
 31
0.0
  0
LINE
  5
1AC
  8
VISIBLE
 10
20.63798997238101
 20
141.1742161295708
 30
0.0
 11
17.63798997238101
 21
141.1742161295708
 31
0.0
  0
LINE
  5
1AD
  8
VISIBLE
 10
118.5879899723812
 20
165.8242161295711
 30
0.0
 11
118.5879899723812
 21
168.8242161295711
 31
0.0
  0
LINE
  5
1AE
  8
VISIBLE
 10
118.5879899723812
 20
165.8242161295711
 30
0.0
 11
135.5879899723811
 21
165.8242161295711
 31
0.0
  0
LINE
  5
1AF
  8
VISIBLE
 10
135.5879899723811
 20
158.8242161295711
 30
0.0
 11
135.5879899723811
 21
165.8242161295711
 31
0.0
  0
LINE
  5
1B0
  8
VISIBLE
 10
135.5879899723811
 20
158.8242161295711
 30
0.0
 11
138.5879899723811
 21
158.8242161295711
 31
0.0
  0
LINE
  5
1B1
  8
VISIBLE
 10
138.5879899723811
 20
158.8242161295711
 30
0.0
 11
138.5879899723811
 21
150.524216129571
 31
0.0
  0
LINE
  5
1B2
  8
VISIBLE
 10
135.5879899723811
 20
150.524216129571
 30
0.0
 11
138.5879899723811
 21
150.524216129571
 31
0.0
  0
LINE
  5
1B3
  8
VISIBLE
 10
135.5879899723811
 20
150.524216129571
 30
0.0
 11
135.5879899723811
 21
143.524216129571
 31
0.0
  0
LINE
  5
1B4
  8
VISIBLE
 10
118.5879899723812
 20
143.524216129571
 30
0.0
 11
135.5879899723811
 21
143.524216129571
 31
0.0
  0
LINE
  5
1B5
  8
VISIBLE
 10
118.5879899723812
 20
143.524216129571
 30
0.0
 11
118.5879899723812
 21
140.524216129571
 31
0.0
  0
LINE
  5
1B6
  8
VISIBLE
 10
118.5879899723812
 20
140.524216129571
 30
0.0
 11
96.08798997238115
 21
140.524216129571
 31
0.0
  0
LINE
  5
1B7
  8
VISIBLE
 10
96.08798997238115
 20
143.524216129571
 30
0.0
 11
96.08798997238115
 21
140.524216129571
 31
0.0
  0
LINE
  5
1B8
  8
VISIBLE
 10
83.58798997238115
 20
143.524216129571
 30
0.0
 11
96.08798997238115
 21
143.524216129571
 31
0.0
  0
LINE
  5
1B9
  8
VISIBLE
 10
83.58798997238115
 20
143.524216129571
 30
0.0
 11
83.58798997238115
 21
140.524216129571
 31
0.0
  0
LINE
  5
1BA
  8
VISIBLE
 10
83.58798997238115
 20
140.524216129571
 30
0.0
 11
63.58798997238115
 21
140.524216129571
 31
0.0
  0
LINE
  5
1BB
  8
VISIBLE
 10
51.10710692417506
 20
129.7317391971426
 30
0.0
 11
63.58798997238115
 21
140.524216129571
 31
0.0
  0
LINE
  5
1BC
  8
VISIBLE
 10
49.14483839100625
 20
132.0009906604527
 30
0.0
 11
51.10710692417506
 21
129.7317391971426
 31
0.0
  0
LINE
  5
1BD
  8
VISIBLE
 10
40.06783253776543
 20
124.1519165277775
 30
0.0
 11
49.14483839100625
 21
132.0009906604527
 31
0.0
  0
LINE
  5
1BE
  8
VISIBLE
 10
40.06783253776543
 20
124.1519165277775
 30
0.0
 11
42.03010107093425
 21
121.8826650644673
 31
0.0
  0
LINE
  5
1BF
  8
VISIBLE
 10
29.54921802272813
 20
111.0901881320388
 30
0.0
 11
42.03010107093425
 21
121.8826650644673
 31
0.0
  0
LINE
  5
1C0
  8
VISIBLE
 10
21.57397683029323
 20
116.252118771101
 30
0.0
 11
29.54921802272813
 21
111.0901881320388
 31
0.0
  0
LINE
  5
1C1
  8
VISIBLE
 10
23.20406018999711
 20
118.7706159897647
 30
0.0
 11
21.57397683029323
 21
116.252118771101
 31
0.0
  0
LINE
  5
1C2
  8
VISIBLE
 10
23.20406018999711
 20
118.7706159897647
 30
0.0
 11
18.16706575266981
 21
122.0307827091725
 31
0.0
  0
LINE
  5
1C3
  8
VISIBLE
 10
18.16706575266981
 20
122.0307827091725
 30
0.0
 11
16.53698239296592
 21
119.5122854905088
 31
0.0
  0
LINE
  5
1C4
  8
VISIBLE
 10
8.561741200531031
 20
124.6742161295711
 30
0.0
 11
16.53698239296592
 21
119.5122854905088
 31
0.0
  0
LINE
  5
1C5
  8
VISIBLE
 10
8.561741200531031
 20
130.674216129571
 30
0.0
 11
8.561741200531031
 21
124.6742161295711
 31
0.0
  0
LINE
  5
1C6
  8
VISIBLE
 10
11.56174120053105
 20
130.6742161295711
 30
0.0
 11
8.561741200531031
 21
130.674216129571
 31
0.0
  0
LINE
  5
1C7
  8
VISIBLE
 10
11.56174120053105
 20
130.6742161295711
 30
0.0
 11
11.56174120053105
 21
140.6742161295711
 31
0.0
  0
LINE
  5
1C8
  8
VISIBLE
 10
11.56174120053105
 20
140.6742161295711
 30
0.0
 11
8.561741200531031
 21
140.674216129571
 31
0.0
  0
LINE
  5
1C9
  8
VISIBLE
 10
8.561741200531031
 20
168.6742161295711
 30
0.0
 11
8.561741200531031
 21
140.674216129571
 31
0.0
  0
LINE
  5
1CA
  8
VISIBLE
 10
11.56174120053105
 20
168.6742161295711
 30
0.0
 11
8.561741200531031
 21
168.6742161295711
 31
0.0
  0
LINE
  5
1CB
  8
VISIBLE
 10
11.56174120053105
 20
178.6742161295711
 30
0.0
 11
11.56174120053105
 21
168.6742161295711
 31
0.0
  0
LINE
  5
1CC
  8
VISIBLE
 10
11.56174120053105
 20
178.6742161295711
 30
0.0
 11
8.561741200531031
 21
178.6742161295711
 31
0.0
  0
LINE
  5
1CD
  8
VISIBLE
 10
8.561741200531046
 20
184.674216129571
 30
0.0
 11
8.561741200531031
 21
178.6742161295711
 31
0.0
  0
LINE
  5
1CE
  8
VISIBLE
 10
8.561741200531046
 20
184.674216129571
 30
0.0
 11
16.53698239296594
 21
189.8361467686333
 31
0.0
  0
LINE
  5
1CF
  8
VISIBLE
 10
18.16706575266981
 20
187.3176495499696
 30
0.0
 11
16.53698239296594
 21
189.8361467686333
 31
0.0
  0
LINE
  5
1D0
  8
VISIBLE
 10
18.16706575266981
 20
187.3176495499696
 30
0.0
 11
23.20406018999711
 21
190.5778162693774
 31
0.0
  0
LINE
  5
1D1
  8
VISIBLE
 10
23.20406018999711
 20
190.5778162693774
 30
0.0
 11
21.57397683029323
 21
193.096313488041
 31
0.0
  0
LINE
  5
1D2
  8
VISIBLE
 10
21.57397683029323
 20
193.096313488041
 30
0.0
 11
29.54921802272813
 21
198.2582441271033
 31
0.0
  0
LINE
  5
1D3
  8
VISIBLE
 10
42.03010107093424
 20
187.4657671946748
 30
0.0
 11
29.54921802272813
 21
198.2582441271033
 31
0.0
  0
LINE
  5
1D4
  8
VISIBLE
 10
40.06783253776542
 20
185.1965157313646
 30
0.0
 11
42.03010107093424
 21
187.4657671946748
 31
0.0
  0
LINE
  5
1D5
  8
VISIBLE
 10
40.06783253776542
 20
185.1965157313646
 30
0.0
 11
49.14483839100625
 21
177.3474415986893
 31
0.0
  0
LINE
  5
1D6
  8
VISIBLE
 10
49.14483839100625
 20
177.3474415986893
 30
0.0
 11
51.10710692417506
 21
179.6166930619995
 31
0.0
  0
LINE
  5
1D7
  8
VISIBLE
 10
63.58798997238114
 20
168.824216129571
 30
0.0
 11
51.10710692417506
 21
179.6166930619995
 31
0.0
  0
LINE
  5
1D8
  8
VISIBLE
 10
83.58798997238115
 20
168.8242161295711
 30
0.0
 11
63.58798997238114
 21
168.824216129571
 31
0.0
  0
LINE
  5
1D9
  8
VISIBLE
 10
83.58798997238115
 20
165.8242161295711
 30
0.0
 11
83.58798997238115
 21
168.8242161295711
 31
0.0
  0
LINE
  5
1DA
  8
VISIBLE
 10
83.58798997238115
 20
165.8242161295711
 30
0.0
 11
96.08798997238115
 21
165.824216129571
 31
0.0
  0
LINE
  5
1DB
  8
VISIBLE
 10
96.08798997238115
 20
165.824216129571
 30
0.0
 11
96.08798997238115
 21
168.824216129571
 31
0.0
  0
LINE
  5
1DC
  8
VISIBLE
 10
118.5879899723812
 20
168.8242161295711
 30
0.0
 11
96.08798997238115
 21
168.824216129571
 31
0.0
  0
LINE
  5
1DF
  8
VISIBLE
 10
165.6533654430049
 20
124.1521395278557
 30
0.0
 11
166.6533654430049
 21
124.1521395278557
 31
0.0
  0
LINE
  5
1E0
  8
VISIBLE
 10
166.6533654430049
 20
124.1521395278557
 30
0.0
 11
166.6533654430049
 21
126.6521395278557
 31
0.0
  0
LINE
  5
1E1
  8
VISIBLE
 10
165.6533654430049
 20
126.6521395278557
 30
0.0
 11
166.6533654430049
 21
126.6521395278557
 31
0.0
  0
LINE
  5
1E2
  8
VISIBLE
 10
165.6533654430049
 20
124.1521395278557
 30
0.0
 11
165.6533654430049
 21
126.6521395278557
 31
0.0
  0
LINE
  5
1E3
  8
VISIBLE
 10
210.9033654430049
 20
132.9021395278557
 30
0.0
 11
210.9033654430049
 21
133.9021395278557
 31
0.0
  0
LINE
  5
1E4
  8
VISIBLE
 10
210.9033654430049
 20
133.9021395278557
 30
0.0
 11
208.4033654430049
 21
133.9021395278557
 31
0.0
  0
LINE
  5
1E5
  8
VISIBLE
 10
208.4033654430049
 20
132.9021395278557
 30
0.0
 11
208.4033654430049
 21
133.9021395278557
 31
0.0
  0
LINE
  5
1E6
  8
VISIBLE
 10
210.9033654430049
 20
132.9021395278557
 30
0.0
 11
208.4033654430049
 21
132.9021395278557
 31
0.0
  0
LINE
  5
1E7
  8
VISIBLE
 10
170.4033654430049
 20
132.9021395278557
 30
0.0
 11
172.9033654430049
 21
132.9021395278557
 31
0.0
  0
LINE
  5
1E8
  8
VISIBLE
 10
172.9033654430049
 20
132.9021395278557
 30
0.0
 11
172.9033654430049
 21
133.9021395278557
 31
0.0
  0
LINE
  5
1E9
  8
VISIBLE
 10
170.4033654430049
 20
133.9021395278557
 30
0.0
 11
172.9033654430049
 21
133.9021395278557
 31
0.0
  0
LINE
  5
1EA
  8
VISIBLE
 10
170.4033654430049
 20
132.9021395278557
 30
0.0
 11
170.4033654430049
 21
133.9021395278557
 31
0.0
  0
LINE
  5
1EB
  8
VISIBLE
 10
170.4033654430049
 20
117.9021395278557
 30
0.0
 11
170.4033654430049
 21
116.9021395278557
 31
0.0
  0
LINE
  5
1EC
  8
VISIBLE
 10
170.4033654430049
 20
116.9021395278557
 30
0.0
 11
172.9033654430049
 21
116.9021395278557
 31
0.0
  0
LINE
  5
1ED
  8
VISIBLE
 10
172.9033654430049
 20
117.9021395278557
 30
0.0
 11
172.9033654430049
 21
116.9021395278557
 31
0.0
  0
LINE
  5
1EE
  8
VISIBLE
 10
170.4033654430049
 20
117.9021395278557
 30
0.0
 11
172.9033654430049
 21
117.9021395278557
 31
0.0
  0
LINE
  5
1EF
  8
VISIBLE
 10
217.6533654430049
 20
114.9021395278557
 30
0.0
 11
214.6533654430049
 21
114.9021395278557
 31
0.0
  0
LINE
  5
1F0
  8
VISIBLE
 10
214.6533654430049
 20
114.9021395278557
 30
0.0
 11
214.6533654430049
 21
111.9021395278557
 31
0.0
  0
LINE
  5
1F1
  8
VISIBLE
 10
214.6533654430049
 20
111.9021395278557
 30
0.0
 11
204.6533654430049
 21
111.9021395278557
 31
0.0
  0
LINE
  5
1F2
  8
VISIBLE
 10
204.6533654430049
 20
114.9021395278557
 30
0.0
 11
204.6533654430049
 21
111.9021395278557
 31
0.0
  0
LINE
  5
1F3
  8
VISIBLE
 10
204.6533654430049
 20
114.9021395278557
 30
0.0
 11
176.6533654430049
 21
114.9021395278557
 31
0.0
  0
LINE
  5
1F4
  8
VISIBLE
 10
176.6533654430049
 20
114.9021395278557
 30
0.0
 11
176.6533654430049
 21
111.9021395278557
 31
0.0
  0
LINE
  5
1F5
  8
VISIBLE
 10
166.6533654430049
 20
111.9021395278557
 30
0.0
 11
176.6533654430049
 21
111.9021395278557
 31
0.0
  0
LINE
  5
1F6
  8
VISIBLE
 10
166.6533654430049
 20
114.9021395278557
 30
0.0
 11
166.6533654430049
 21
111.9021395278557
 31
0.0
  0
LINE
  5
1F7
  8
VISIBLE
 10
166.6533654430049
 20
114.9021395278557
 30
0.0
 11
163.6533654430049
 21
114.9021395278557
 31
0.0
  0
LINE
  5
1F8
  8
VISIBLE
 10
163.6533654430049
 20
135.9021395278557
 30
0.0
 11
163.6533654430049
 21
114.9021395278557
 31
0.0
  0
LINE
  5
1F9
  8
VISIBLE
 10
166.6533654430049
 20
135.9021395278557
 30
0.0
 11
163.6533654430049
 21
135.9021395278557
 31
0.0
  0
LINE
  5
1FA
  8
VISIBLE
 10
166.6533654430049
 20
135.9021395278557
 30
0.0
 11
166.6533654430049
 21
138.9021395278557
 31
0.0
  0
LINE
  5
1FB
  8
VISIBLE
 10
166.6533654430049
 20
138.9021395278557
 30
0.0
 11
176.6533654430049
 21
138.9021395278557
 31
0.0
  0
LINE
  5
1FC
  8
VISIBLE
 10
176.6533654430049
 20
135.9021395278557
 30
0.0
 11
176.6533654430049
 21
138.9021395278557
 31
0.0
  0
LINE
  5
1FD
  8
VISIBLE
 10
204.6533654430049
 20
135.9021395278557
 30
0.0
 11
176.6533654430049
 21
135.9021395278557
 31
0.0
  0
LINE
  5
1FE
  8
VISIBLE
 10
204.6533654430049
 20
135.9021395278557
 30
0.0
 11
204.6533654430049
 21
138.9021395278557
 31
0.0
  0
LINE
  5
1FF
  8
VISIBLE
 10
214.6533654430049
 20
138.9021395278557
 30
0.0
 11
204.6533654430049
 21
138.9021395278557
 31
0.0
  0
LINE
  5
200
  8
VISIBLE
 10
214.6533654430049
 20
135.9021395278557
 30
0.0
 11
214.6533654430049
 21
138.9021395278557
 31
0.0
  0
LINE
  5
201
  8
VISIBLE
 10
217.6533654430049
 20
135.9021395278557
 30
0.0
 11
214.6533654430049
 21
135.9021395278557
 31
0.0
  0
LINE
  5
202
  8
VISIBLE
 10
217.6533654430049
 20
135.9021395278557
 30
0.0
 11
217.6533654430049
 21
114.9021395278557
 31
0.0
  0
LINE
  5
203
  8
VISIBLE
 10
210.9033654430049
 20
116.9021395278557
 30
0.0
 11
208.4033654430049
 21
116.9021395278557
 31
0.0
  0
LINE
  5
204
  8
VISIBLE
 10
210.9033654430049
 20
117.9021395278557
 30
0.0
 11
210.9033654430049
 21
116.9021395278557
 31
0.0
  0
LINE
  5
205
  8
VISIBLE
 10
210.9033654430049
 20
117.9021395278557
 30
0.0
 11
208.4033654430049
 21
117.9021395278557
 31
0.0
  0
LINE
  5
206
  8
VISIBLE
 10
208.4033654430049
 20
117.9021395278557
 30
0.0
 11
208.4033654430049
 21
116.9021395278557
 31
0.0
  0
LINE
  5
207
  8
VISIBLE
 10
214.6533654430049
 20
124.1521395278557
 30
0.0
 11
214.6533654430049
 21
126.6521395278557
 31
0.0
  0
LINE
  5
208
  8
VISIBLE
 10
215.6533654430049
 20
124.1521395278557
 30
0.0
 11
214.6533654430049
 21
124.1521395278557
 31
0.0
  0
LINE
  5
209
  8
VISIBLE
 10
215.6533654430049
 20
124.1521395278557
 30
0.0
 11
215.6533654430049
 21
126.6521395278557
 31
0.0
  0
LINE
  5
20A
  8
VISIBLE
 10
215.6533654430049
 20
126.6521395278557
 30
0.0
 11
214.6533654430049
 21
126.6521395278557
 31
0.0
  0
LINE
  5
20D
  8
VISIBLE
 10
138.0559023671905
 20
249.3662857722672
 30
0.0
 11
138.0559023671905
 21
248.3662857722672
 31
0.0
  0
LINE
  5
20E
  8
VISIBLE
 10
138.0559023671905
 20
248.3662857722672
 30
0.0
 11
140.5559023671905
 21
248.3662857722672
 31
0.0
  0
LINE
  5
20F
  8
VISIBLE
 10
140.5559023671905
 20
249.3662857722672
 30
0.0
 11
140.5559023671905
 21
248.3662857722672
 31
0.0
  0
LINE
  5
210
  8
VISIBLE
 10
138.0559023671905
 20
249.3662857722672
 30
0.0
 11
140.5559023671905
 21
249.3662857722672
 31
0.0
  0
LINE
  5
211
  8
VISIBLE
 10
146.8059023671905
 20
204.1162857722672
 30
0.0
 11
147.8059023671905
 21
204.1162857722672
 31
0.0
  0
LINE
  5
212
  8
VISIBLE
 10
147.8059023671905
 20
204.1162857722672
 30
0.0
 11
147.8059023671905
 21
206.6162857722672
 31
0.0
  0
LINE
  5
213
  8
VISIBLE
 10
146.8059023671905
 20
206.6162857722672
 30
0.0
 11
147.8059023671905
 21
206.6162857722672
 31
0.0
  0
LINE
  5
214
  8
VISIBLE
 10
146.8059023671905
 20
204.1162857722672
 30
0.0
 11
146.8059023671905
 21
206.6162857722672
 31
0.0
  0
LINE
  5
215
  8
VISIBLE
 10
146.8059023671905
 20
244.6162857722672
 30
0.0
 11
146.8059023671905
 21
242.1162857722672
 31
0.0
  0
LINE
  5
216
  8
VISIBLE
 10
146.8059023671905
 20
242.1162857722672
 30
0.0
 11
147.8059023671905
 21
242.1162857722672
 31
0.0
  0
LINE
  5
217
  8
VISIBLE
 10
147.8059023671905
 20
244.6162857722672
 30
0.0
 11
147.8059023671905
 21
242.1162857722672
 31
0.0
  0
LINE
  5
218
  8
VISIBLE
 10
146.8059023671905
 20
244.6162857722672
 30
0.0
 11
147.8059023671905
 21
244.6162857722672
 31
0.0
  0
LINE
  5
219
  8
VISIBLE
 10
131.8059023671905
 20
244.6162857722672
 30
0.0
 11
130.8059023671905
 21
244.6162857722672
 31
0.0
  0
LINE
  5
21A
  8
VISIBLE
 10
130.8059023671905
 20
244.6162857722672
 30
0.0
 11
130.8059023671905
 21
242.1162857722672
 31
0.0
  0
LINE
  5
21B
  8
VISIBLE
 10
131.8059023671905
 20
242.1162857722672
 30
0.0
 11
130.8059023671905
 21
242.1162857722672
 31
0.0
  0
LINE
  5
21C
  8
VISIBLE
 10
131.8059023671905
 20
244.6162857722672
 30
0.0
 11
131.8059023671905
 21
242.1162857722672
 31
0.0
  0
LINE
  5
21D
  8
VISIBLE
 10
128.8059023671905
 20
197.3662857722672
 30
0.0
 11
128.8059023671905
 21
200.3662857722672
 31
0.0
  0
LINE
  5
21E
  8
VISIBLE
 10
128.8059023671905
 20
200.3662857722672
 30
0.0
 11
125.8059023671905
 21
200.3662857722672
 31
0.0
  0
LINE
  5
21F
  8
VISIBLE
 10
125.8059023671905
 20
200.3662857722672
 30
0.0
 11
125.8059023671905
 21
210.3662857722672
 31
0.0
  0
LINE
  5
220
  8
VISIBLE
 10
128.8059023671905
 20
210.3662857722672
 30
0.0
 11
125.8059023671905
 21
210.3662857722672
 31
0.0
  0
LINE
  5
221
  8
VISIBLE
 10
128.8059023671905
 20
210.3662857722672
 30
0.0
 11
128.8059023671905
 21
238.3662857722672
 31
0.0
  0
LINE
  5
222
  8
VISIBLE
 10
128.8059023671905
 20
238.3662857722672
 30
0.0
 11
125.8059023671905
 21
238.3662857722672
 31
0.0
  0
LINE
  5
223
  8
VISIBLE
 10
125.8059023671905
 20
248.3662857722672
 30
0.0
 11
125.8059023671905
 21
238.3662857722672
 31
0.0
  0
LINE
  5
224
  8
VISIBLE
 10
128.8059023671905
 20
248.3662857722672
 30
0.0
 11
125.8059023671905
 21
248.3662857722672
 31
0.0
  0
LINE
  5
225
  8
VISIBLE
 10
128.8059023671905
 20
248.3662857722672
 30
0.0
 11
128.8059023671905
 21
251.3662857722672
 31
0.0
  0
LINE
  5
226
  8
VISIBLE
 10
149.8059023671905
 20
251.3662857722672
 30
0.0
 11
128.8059023671905
 21
251.3662857722672
 31
0.0
  0
LINE
  5
227
  8
VISIBLE
 10
149.8059023671905
 20
248.3662857722672
 30
0.0
 11
149.8059023671905
 21
251.3662857722672
 31
0.0
  0
LINE
  5
228
  8
VISIBLE
 10
149.8059023671905
 20
248.3662857722672
 30
0.0
 11
152.8059023671905
 21
248.3662857722672
 31
0.0
  0
LINE
  5
229
  8
VISIBLE
 10
152.8059023671905
 20
248.3662857722672
 30
0.0
 11
152.8059023671905
 21
238.3662857722672
 31
0.0
  0
LINE
  5
22A
  8
VISIBLE
 10
149.8059023671905
 20
238.3662857722672
 30
0.0
 11
152.8059023671905
 21
238.3662857722672
 31
0.0
  0
LINE
  5
22B
  8
VISIBLE
 10
149.8059023671905
 20
210.3662857722672
 30
0.0
 11
149.8059023671905
 21
238.3662857722672
 31
0.0
  0
LINE
  5
22C
  8
VISIBLE
 10
149.8059023671905
 20
210.3662857722672
 30
0.0
 11
152.8059023671905
 21
210.3662857722672
 31
0.0
  0
LINE
  5
22D
  8
VISIBLE
 10
152.8059023671905
 20
200.3662857722672
 30
0.0
 11
152.8059023671905
 21
210.3662857722672
 31
0.0
  0
LINE
  5
22E
  8
VISIBLE
 10
149.8059023671905
 20
200.3662857722672
 30
0.0
 11
152.8059023671905
 21
200.3662857722672
 31
0.0
  0
LINE
  5
22F
  8
VISIBLE
 10
149.8059023671905
 20
197.3662857722672
 30
0.0
 11
149.8059023671905
 21
200.3662857722672
 31
0.0
  0
LINE
  5
230
  8
VISIBLE
 10
149.8059023671905
 20
197.3662857722672
 30
0.0
 11
128.8059023671905
 21
197.3662857722672
 31
0.0
  0
LINE
  5
231
  8
VISIBLE
 10
130.8059023671905
 20
204.1162857722672
 30
0.0
 11
130.8059023671905
 21
206.6162857722672
 31
0.0
  0
LINE
  5
232
  8
VISIBLE
 10
131.8059023671905
 20
204.1162857722672
 30
0.0
 11
130.8059023671905
 21
204.1162857722672
 31
0.0
  0
LINE
  5
233
  8
VISIBLE
 10
131.8059023671905
 20
204.1162857722672
 30
0.0
 11
131.8059023671905
 21
206.6162857722672
 31
0.0
  0
LINE
  5
234
  8
VISIBLE
 10
131.8059023671905
 20
206.6162857722672
 30
0.0
 11
130.8059023671905
 21
206.6162857722672
 31
0.0
  0
LINE
  5
235
  8
VISIBLE
 10
138.0559023671905
 20
200.3662857722672
 30
0.0
 11
140.5559023671905
 21
200.3662857722672
 31
0.0
  0
LINE
  5
236
  8
VISIBLE
 10
138.0559023671905
 20
199.3662857722672
 30
0.0
 11
138.0559023671905
 21
200.3662857722672
 31
0.0
  0
LINE
  5
237
  8
VISIBLE
 10
138.0559023671905
 20
199.3662857722672
 30
0.0
 11
140.5559023671905
 21
199.3662857722672
 31
0.0
  0
LINE
  5
238
  8
VISIBLE
 10
140.5559023671905
 20
199.3662857722672
 30
0.0
 11
140.5559023671905
 21
200.3662857722672
 31
0.0
  0
LINE
  5
23B
  8
VISIBLE
 10
102.326606559237
 20
60.46466213565691
 30
0.0
 11
102.326606559237
 21
61.46466213565691
 31
0.0
  0
LINE
  5
23C
  8
VISIBLE
 10
99.82660655923696
 20
61.46466213565691
 30
0.0
 11
102.326606559237
 21
61.46466213565691
 31
0.0
  0
LINE
  5
23D
  8
VISIBLE
 10
99.82660655923696
 20
60.46466213565691
 30
0.0
 11
99.82660655923696
 21
61.46466213565691
 31
0.0
  0
LINE
  5
23E
  8
VISIBLE
 10
99.82660655923696
 20
60.46466213565691
 30
0.0
 11
102.326606559237
 21
60.46466213565691
 31
0.0
  0
LINE
  5
23F
  8
VISIBLE
 10
99.82660655923696
 20
77.46466213565688
 30
0.0
 11
99.82660655923696
 21
76.46466213565688
 31
0.0
  0
LINE
  5
240
  8
VISIBLE
 10
99.82660655923696
 20
76.46466213565688
 30
0.0
 11
102.326606559237
 21
76.46466213565688
 31
0.0
  0
LINE
  5
241
  8
VISIBLE
 10
102.326606559237
 20
77.46466213565688
 30
0.0
 11
102.326606559237
 21
76.46466213565688
 31
0.0
  0
LINE
  5
242
  8
VISIBLE
 10
99.82660655923696
 20
77.46466213565688
 30
0.0
 11
102.326606559237
 21
77.46466213565688
 31
0.0
  0
LINE
  5
243
  8
VISIBLE
 10
83.67660655923696
 20
70.2146621356569
 30
0.0
 11
83.67660655923696
 21
67.7146621356569
 31
0.0
  0
LINE
  5
244
  8
VISIBLE
 10
84.67660655923696
 20
67.7146621356569
 30
0.0
 11
83.67660655923696
 21
67.7146621356569
 31
0.0
  0
LINE
  5
245
  8
VISIBLE
 10
84.67660655923696
 20
70.2146621356569
 30
0.0
 11
84.67660655923696
 21
67.7146621356569
 31
0.0
  0
LINE
  5
246
  8
VISIBLE
 10
84.67660655923696
 20
70.2146621356569
 30
0.0
 11
83.67660655923696
 21
70.2146621356569
 31
0.0
  0
LINE
  5
247
  8
VISIBLE
 10
107.076606559237
 20
55.46466213565689
 30
0.0
 11
95.07660655923696
 21
55.46466213565689
 31
0.0
  0
LINE
  5
248
  8
VISIBLE
 10
95.07660655923696
 20
55.46466213565689
 30
0.0
 11
95.07660655923696
 21
58.46466213565689
 31
0.0
  0
LINE
  5
249
  8
VISIBLE
 10
95.07660655923696
 20
58.46466213565689
 30
0.0
 11
81.67660655923696
 21
58.46466213565689
 31
0.0
  0
LINE
  5
24A
  8
VISIBLE
 10
81.67660655923696
 20
79.4646621356569
 30
0.0
 11
81.67660655923696
 21
58.46466213565689
 31
0.0
  0
LINE
  5
24B
  8
VISIBLE
 10
95.07660655923696
 20
79.4646621356569
 30
0.0
 11
81.67660655923696
 21
79.4646621356569
 31
0.0
  0
LINE
  5
24C
  8
VISIBLE
 10
95.07660655923696
 20
82.4646621356569
 30
0.0
 11
95.07660655923696
 21
79.4646621356569
 31
0.0
  0
LINE
  5
24D
  8
VISIBLE
 10
107.076606559237
 20
82.4646621356569
 30
0.0
 11
95.07660655923696
 21
82.4646621356569
 31
0.0
  0
LINE
  5
24E
  8
VISIBLE
 10
107.076606559237
 20
82.4646621356569
 30
0.0
 11
107.076606559237
 21
79.4646621356569
 31
0.0
  0
LINE
  5
24F
  8
VISIBLE
 10
120.476606559237
 20
79.4646621356569
 30
0.0
 11
107.076606559237
 21
79.4646621356569
 31
0.0
  0
LINE
  5
250
  8
VISIBLE
 10
120.476606559237
 20
79.4646621356569
 30
0.0
 11
120.476606559237
 21
58.46466213565689
 31
0.0
  0
LINE
  5
251
  8
VISIBLE
 10
120.476606559237
 20
58.46466213565689
 30
0.0
 11
107.076606559237
 21
58.46466213565689
 31
0.0
  0
LINE
  5
252
  8
VISIBLE
 10
107.076606559237
 20
55.46466213565689
 30
0.0
 11
107.076606559237
 21
58.46466213565689
 31
0.0
  0
LINE
  5
253
  8
VISIBLE
 10
117.476606559237
 20
67.7146621356569
 30
0.0
 11
118.476606559237
 21
67.7146621356569
 31
0.0
  0
LINE
  5
254
  8
VISIBLE
 10
118.476606559237
 20
70.2146621356569
 30
0.0
 11
118.476606559237
 21
67.7146621356569
 31
0.0
  0
LINE
  5
255
  8
VISIBLE
 10
117.476606559237
 20
70.2146621356569
 30
0.0
 11
118.476606559237
 21
70.2146621356569
 31
0.0
  0
LINE
  5
256
  8
VISIBLE
 10
117.476606559237
 20
70.2146621356569
 30
0.0
 11
117.476606559237
 21
67.7146621356569
 31
0.0
  0
LINE
  5
259
  8
VISIBLE
 10
221.5818882274427
 20
34.63980296047076
 30
0.0
 11
221.5818882274427
 21
35.63980296047076
 31
0.0
  0
LINE
  5
25A
  8
VISIBLE
 10
219.0818882274427
 20
35.63980296047076
 30
0.0
 11
221.5818882274427
 21
35.63980296047076
 31
0.0
  0
LINE
  5
25B
  8
VISIBLE
 10
219.0818882274427
 20
34.63980296047076
 30
0.0
 11
219.0818882274427
 21
35.63980296047076
 31
0.0
  0
LINE
  5
25C
  8
VISIBLE
 10
219.0818882274427
 20
34.63980296047076
 30
0.0
 11
221.5818882274427
 21
34.63980296047076
 31
0.0
  0
LINE
  5
25D
  8
VISIBLE
 10
219.0818882274427
 20
51.63980296047073
 30
0.0
 11
219.0818882274427
 21
50.63980296047073
 31
0.0
  0
LINE
  5
25E
  8
VISIBLE
 10
219.0818882274427
 20
50.63980296047073
 30
0.0
 11
221.5818882274427
 21
50.63980296047073
 31
0.0
  0
LINE
  5
25F
  8
VISIBLE
 10
221.5818882274427
 20
51.63980296047073
 30
0.0
 11
221.5818882274427
 21
50.63980296047073
 31
0.0
  0
LINE
  5
260
  8
VISIBLE
 10
219.0818882274427
 20
51.63980296047073
 30
0.0
 11
221.5818882274427
 21
51.63980296047073
 31
0.0
  0
LINE
  5
261
  8
VISIBLE
 10
202.9318882274427
 20
44.38980296047075
 30
0.0
 11
202.9318882274427
 21
41.88980296047075
 31
0.0
  0
LINE
  5
262
  8
VISIBLE
 10
203.9318882274427
 20
41.88980296047075
 30
0.0
 11
202.9318882274427
 21
41.88980296047075
 31
0.0
  0
LINE
  5
263
  8
VISIBLE
 10
203.9318882274427
 20
44.38980296047075
 30
0.0
 11
203.9318882274427
 21
41.88980296047075
 31
0.0
  0
LINE
  5
264
  8
VISIBLE
 10
203.9318882274427
 20
44.38980296047075
 30
0.0
 11
202.9318882274427
 21
44.38980296047075
 31
0.0
  0
LINE
  5
265
  8
VISIBLE
 10
226.3318882274427
 20
29.63980296047075
 30
0.0
 11
214.3318882274427
 21
29.63980296047074
 31
0.0
  0
LINE
  5
266
  8
VISIBLE
 10
214.3318882274427
 20
29.63980296047074
 30
0.0
 11
214.3318882274427
 21
32.63980296047075
 31
0.0
  0
LINE
  5
267
  8
VISIBLE
 10
214.3318882274427
 20
32.63980296047075
 30
0.0
 11
200.9318882274427
 21
32.63980296047075
 31
0.0
  0
LINE
  5
268
  8
VISIBLE
 10
200.9318882274427
 20
53.63980296047075
 30
0.0
 11
200.9318882274427
 21
32.63980296047075
 31
0.0
  0
LINE
  5
269
  8
VISIBLE
 10
214.3318882274427
 20
53.63980296047075
 30
0.0
 11
200.9318882274427
 21
53.63980296047075
 31
0.0
  0
LINE
  5
26A
  8
VISIBLE
 10
214.3318882274427
 20
56.63980296047075
 30
0.0
 11
214.3318882274427
 21
53.63980296047075
 31
0.0
  0
LINE
  5
26B
  8
VISIBLE
 10
226.3318882274427
 20
56.63980296047075
 30
0.0
 11
214.3318882274427
 21
56.63980296047075
 31
0.0
  0
LINE
  5
26C
  8
VISIBLE
 10
226.3318882274427
 20
56.63980296047075
 30
0.0
 11
226.3318882274427
 21
53.63980296047075
 31
0.0
  0
LINE
  5
26D
  8
VISIBLE
 10
239.7318882274427
 20
53.63980296047075
 30
0.0
 11
226.3318882274427
 21
53.63980296047075
 31
0.0
  0
LINE
  5
26E
  8
VISIBLE
 10
239.7318882274427
 20
53.63980296047075
 30
0.0
 11
239.7318882274427
 21
32.63980296047075
 31
0.0
  0
LINE
  5
26F
  8
VISIBLE
 10
239.7318882274427
 20
32.63980296047075
 30
0.0
 11
226.3318882274427
 21
32.63980296047075
 31
0.0
  0
LINE
  5
270
  8
VISIBLE
 10
226.3318882274427
 20
29.63980296047075
 30
0.0
 11
226.3318882274427
 21
32.63980296047075
 31
0.0
  0
LINE
  5
271
  8
VISIBLE
 10
236.7318882274427
 20
41.88980296047075
 30
0.0
 11
237.7318882274427
 21
41.88980296047074
 31
0.0
  0
LINE
  5
272
  8
VISIBLE
 10
237.7318882274427
 20
44.38980296047074
 30
0.0
 11
237.7318882274427
 21
41.88980296047074
 31
0.0
  0
LINE
  5
273
  8
VISIBLE
 10
236.7318882274427
 20
44.38980296047074
 30
0.0
 11
237.7318882274427
 21
44.38980296047074
 31
0.0
  0
LINE
  5
274
  8
VISIBLE
 10
236.7318882274427
 20
44.38980296047074
 30
0.0
 11
236.7318882274427
 21
41.88980296047075
 31
0.0
  0
LINE
  5
277
  8
VISIBLE
 10
138.2946915559244
 20
124.8434346656532
 30
0.0
 11
135.2946890862552
 21
124.8434346656532
 31
0.0
  0
LINE
  5
278
  8
VISIBLE
 10
134.7946890862564
 20
124.3434346656544
 30
0.0
 11
135.2946890862552
 21
124.8434346656532
 31
0.0
  0
LINE
  5
279
  8
VISIBLE
 10
134.7946890862564
 20
122.5434346656544
 30
0.0
 11
134.7946890862564
 21
124.3434346656544
 31
0.0
  0
LINE
  5
27A
  8
VISIBLE
 10
131.8305036929992
 20
122.5434346656544
 30
0.0
 11
134.7946890862564
 21
122.5434346656544
 31
0.0
  0
POLYLINE
  5
27B
  8
VISIBLE
 66
     1
 10
0.0
 20
0.0
 30
0.0
  0
VERTEX
  5
4C3
  8
VISIBLE
 10
130.8947157246507
 20
122.2894052257992
 30
0.0
  0
VERTEX
  5
4C4
  8
VISIBLE
 10
130.9306631974744
 20
122.3087840031603
 30
0.0
  0
VERTEX
  5
4C5
  8
VISIBLE
 10
130.9669823726381
 20
122.327510296684
 30
0.0
  0
VERTEX
  5
4C6
  8
VISIBLE
 10
131.0036586546747
 20
122.3455688021818
 30
0.0
  0
VERTEX
  5
4C7
  8
VISIBLE
 10
131.0406774481172
 20
122.3629442154651
 30
0.0
  0
VERTEX
  5
4C8
  8
VISIBLE
 10
131.0780241574985
 20
122.3796212323452
 30
0.0
  0
VERTEX
  5
4C9
  8
VISIBLE
 10
131.1156841873518
 20
122.3955845486337
 30
0.0
  0
VERTEX
  5
4CA
  8
VISIBLE
 10
131.1536429422099
 20
122.4108188601418
 30
0.0
  0
VERTEX
  5
4CB
  8
VISIBLE
 10
131.1918858266058
 20
122.4253088626811
 30
0.0
  0
VERTEX
  5
4CC
  8
VISIBLE
 10
131.2303982450726
 20
122.4390392520629
 30
0.0
  0
VERTEX
  5
4CD
  8
VISIBLE
 10
131.2691656021431
 20
122.4519947240986
 30
0.0
  0
VERTEX
  5
4CE
  8
VISIBLE
 10
131.3081733023504
 20
122.4641599745997
 30
0.0
  0
VERTEX
  5
4CF
  8
VISIBLE
 10
131.3474067502274
 20
122.4755196993775
 30
0.0
  0
VERTEX
  5
4D0
  8
VISIBLE
 10
131.3868513503072
 20
122.4860585942436
 30
0.0
  0
VERTEX
  5
4D1
  8
VISIBLE
 10
131.4264925071226
 20
122.4957613550093
 30
0.0
  0
VERTEX
  5
4D2
  8
VISIBLE
 10
131.4663156252067
 20
122.5046126774859
 30
0.0
  0
VERTEX
  5
4D3
  8
VISIBLE
 10
131.5063061090926
 20
122.512597257485
 30
0.0
  0
VERTEX
  5
4D4
  8
VISIBLE
 10
131.5464493633131
 20
122.5196997908179
 30
0.0
  0
VERTEX
  5
4D5
  8
VISIBLE
 10
131.5867307924011
 20
122.5259049732961
 30
0.0
  0
VERTEX
  5
4D6
  8
VISIBLE
 10
131.6271358008898
 20
122.5311975007309
 30
0.0
  0
VERTEX
  5
4D7
  8
VISIBLE
 10
131.6676497933121
 20
122.5355620689338
 30
0.0
  0
VERTEX
  5
4D8
  8
VISIBLE
 10
131.708258174201
 20
122.5389833737161
 30
0.0
  0
VERTEX
  5
4D9
  8
VISIBLE
 10
131.7489463480894
 20
122.5414461108894
 30
0.0
  0
VERTEX
  5
4DA
  8
VISIBLE
 10
131.7896997195104
 20
122.5429349762651
 30
0.0
  0
VERTEX
  5
4DB
  8
VISIBLE
 10
131.8305036929969
 20
122.5434346656544
 30
0.0
  0
SEQEND
  5
5AB
  8
VISIBLE
  0
POLYLINE
  5
27C
  8
VISIBLE
 66
     1
 10
0.0
 20
0.0
 30
0.0
  0
VERTEX
  5
4DC
  8
VISIBLE
 10
129.8572598412263
 20
120.5434346656544
 30
0.0
  0
VERTEX
  5
4DD
  8
VISIBLE
 10
129.8584066783039
 20
120.6100038846822
 30
0.0
  0
VERTEX
  5
4DE
  8
VISIBLE
 10
129.8618327977978
 20
120.6764920433831
 30
0.0
  0
VERTEX
  5
4DF
  8
VISIBLE
 10
129.8675166121002
 20
120.7428265938959
 30
0.0
  0
VERTEX
  5
4E0
  8
VISIBLE
 10
129.875436533603
 20
120.8089349883591
 30
0.0
  0
VERTEX
  5
4E1
  8
VISIBLE
 10
129.8855709746983
 20
120.8747446789114
 30
0.0
  0
VERTEX
  5
4E2
  8
VISIBLE
 10
129.8978983477782
 20
120.9401831176916
 30
0.0
  0
VERTEX
  5
4E3
  8
VISIBLE
 10
129.9123970652347
 20
121.0051777568382
 30
0.0
  0
VERTEX
  5
4E4
  8
VISIBLE
 10
129.9290455394598
 20
121.06965604849
 30
0.0
  0
VERTEX
  5
4E5
  8
VISIBLE
 10
129.9478221828457
 20
121.1335454447857
 30
0.0
  0
VERTEX
  5
4E6
  8
VISIBLE
 10
129.9687054077842
 20
121.1967733978638
 30
0.0
  0
VERTEX
  5
4E7
  8
VISIBLE
 10
129.9916736266674
 20
121.259267359863
 30
0.0
  0
VERTEX
  5
4E8
  8
VISIBLE
 10
130.0167052518875
 20
121.3209547829221
 30
0.0
  0
VERTEX
  5
4E9
  8
VISIBLE
 10
130.0437786958363
 20
121.3817631191796
 30
0.0
  0
VERTEX
  5
4EA
  8
VISIBLE
 10
130.0728723709061
 20
121.4416198207744
 30
0.0
  0
VERTEX
  5
4EB
  8
VISIBLE
 10
130.1039646894887
 20
121.5004523398449
 30
0.0
  0
VERTEX
  5
4EC
  8
VISIBLE
 10
130.1370340639762
 20
121.55818812853
 30
0.0
  0
VERTEX
  5
4ED
  8
VISIBLE
 10
130.1720533666095
 20
121.6147584961113
 30
0.0
  0
VERTEX
  5
4EE
  8
VISIBLE
 10
130.2089733090243
 20
121.6701101804432
 30
0.0
  0
VERTEX
  5
4EF
  8
VISIBLE
 10
130.247739062705
 20
121.7241937765227
 30
0.0
  0
VERTEX
  5
4F0
  8
VISIBLE
 10
130.2882957991363
 20
121.7769598793474
 30
0.0
  0
VERTEX
  5
4F1
  8
VISIBLE
 10
130.3305886898026
 20
121.8283590839145
 30
0.0
  0
VERTEX
  5
4F2
  8
VISIBLE
 10
130.3745629061885
 20
121.8783419852212
 30
0.0
  0
VERTEX
  5
4F3
  8
VISIBLE
 10
130.4201636197785
 20
121.9268591782649
 30
0.0
  0
VERTEX
  5
4F4
  8
VISIBLE
 10
130.467336002057
 20
121.9738612580429
 30
0.0
  0
VERTEX
  5
4F5
  8
VISIBLE
 10
130.5160252245086
 20
122.0192988195525
 30
0.0
  0
VERTEX
  5
4F6
  8
VISIBLE
 10
130.5661764586179
 20
122.063122457791
 30
0.0
  0
VERTEX
  5
4F7
  8
VISIBLE
 10
130.6177348758693
 20
122.1052827677557
 30
0.0
  0
VERTEX
  5
4F8
  8
VISIBLE
 10
130.6706456477473
 20
122.1457303444439
 30
0.0
  0
VERTEX
  5
4F9
  8
VISIBLE
 10
130.7248539457365
 20
122.1844157828529
 30
0.0
  0
VERTEX
  5
4FA
  8
VISIBLE
 10
130.7803049413214
 20
122.2212896779799
 30
0.0
  0
VERTEX
  5
4FB
  8
VISIBLE
 10
130.8369438059865
 20
122.2563026248224
 30
0.0
  0
VERTEX
  5
4FC
  8
VISIBLE
 10
130.8947157112162
 20
122.2894052183776
 30
0.0
  0
SEQEND
  5
5AC
  8
VISIBLE
  0
LINE
  5
27D
  8
VISIBLE
 10
129.8572598412263
 20
120.5434346656544
 30
0.0
 11
129.8572598412252
 21
117.4434346656544
 31
0.0
  0
LINE
  5
27E
  8
VISIBLE
 10
129.7945640870375
 20
117.4434346656544
 30
0.0
 11
129.8572598412252
 21
117.4434346656544
 31
0.0
  0
LINE
  5
27F
  8
VISIBLE
 10
129.7945640870375
 20
116.4111213328582
 30
0.0
 11
129.7945640870375
 21
117.4434346656544
 31
0.0
  0
ARC
  5
280
  8
VISIBLE
 10
130.2446890862563
 20
116.1934346656544
 30
0.0
 40
0.499999999999948
 50
154.1909478967525
 51
180.0000000000016
  0
LINE
  5
281
  8
VISIBLE
 10
129.7446890862564
 20
114.3434346656544
 30
0.0
 11
129.7446890862564
 21
116.1934346656544
 31
0.0
  0
LINE
  5
282
  8
VISIBLE
 10
126.2946915559244
 20
114.3434346656544
 30
0.0
 11
126.2946915559244
 21
111.3434346656544
 31
0.0
  0
LINE
  5
283
  8
VISIBLE
 10
126.2946915559244
 20
135.3434346656544
 30
0.0
 11
126.2946915559244
 21
138.3434346656544
 31
0.0
  0
LINE
  5
284
  8
VISIBLE
 10
153.2946915559244
 20
135.3434346656544
 30
0.0
 11
126.2946915559244
 21
135.3434346656544
 31
0.0
  0
LINE
  5
285
  8
VISIBLE
 10
153.2946915559244
 20
135.3434346656544
 30
0.0
 11
153.2946915559244
 21
138.3434346656544
 31
0.0
  0
LINE
  5
286
  8
VISIBLE
 10
156.2946915559244
 20
138.3434346656544
 30
0.0
 11
153.2946915559244
 21
138.3434346656544
 31
0.0
  0
LINE
  5
287
  8
VISIBLE
 10
156.2946915559244
 20
138.3434346656544
 30
0.0
 11
156.2946915559244
 21
111.3434346656544
 31
0.0
  0
LINE
  5
288
  8
VISIBLE
 10
156.2946915559244
 20
111.3434346656544
 30
0.0
 11
153.2946915559244
 21
111.3434346656544
 31
0.0
  0
LINE
  5
289
  8
VISIBLE
 10
153.2946915559244
 20
114.3434346656544
 30
0.0
 11
153.2946915559244
 21
111.3434346656544
 31
0.0
  0
LINE
  5
28A
  8
VISIBLE
 10
153.2946915559244
 20
114.3434346656544
 30
0.0
 11
149.8446890862564
 21
114.3434346656544
 31
0.0
  0
LINE
  5
28B
  8
VISIBLE
 10
149.8446890862564
 20
116.1934346656544
 30
0.0
 11
149.8446890862564
 21
114.3434346656544
 31
0.0
  0
ARC
  5
28C
  8
VISIBLE
 10
149.3446890862564
 20
116.1934346656544
 30
0.0
 40
0.4999999999999497
 50
359.9999999999984
 51
25.8090521032475
  0
LINE
  5
28D
  8
VISIBLE
 10
149.7948140854751
 20
117.4434346656544
 30
0.0
 11
149.7948140854751
 21
116.4111213328582
 31
0.0
  0
LINE
  5
28E
  8
VISIBLE
 10
149.7321183312864
 20
117.4434346656544
 30
0.0
 11
149.7948140854751
 21
117.4434346656544
 31
0.0
  0
LINE
  5
28F
  8
VISIBLE
 10
149.7321183312864
 20
120.5434346656544
 30
0.0
 11
149.7321183312864
 21
117.4434346656544
 31
0.0
  0
POLYLINE
  5
290
  8
VISIBLE
 66
     1
 10
0.0
 20
0.0
 30
0.0
  0
VERTEX
  5
4FD
  8
VISIBLE
 10
149.7321183312875
 20
120.5434346656544
 30
0.0
  0
VERTEX
  5
4FE
  8
VISIBLE
 10
149.7309715694452
 20
120.6099931561282
 30
0.0
  0
VERTEX
  5
4FF
  8
VISIBLE
 10
149.7275456546229
 20
120.6764726736076
 30
0.0
  0
VERTEX
  5
500
  8
VISIBLE
 10
149.7218621428771
 20
120.7428005086615
 30
0.0
  0
VERTEX
  5
501
  8
VISIBLE
 10
149.7139425902646
 20
120.8089039518588
 30
0.0
  0
VERTEX
  5
502
  8
VISIBLE
 10
149.703808552842
 20
120.8747102937685
 30
0.0
  0
VERTEX
  5
503
  8
VISIBLE
 10
149.6914815866658
 20
120.9401468249594
 30
0.0
  0
VERTEX
  5
504
  8
VISIBLE
 10
149.6769832477929
 20
121.0051408360005
 30
0.0
  0
VERTEX
  5
505
  8
VISIBLE
 10
149.6603350922797
 20
121.0696196174608
 30
0.0
  0
VERTEX
  5
506
  8
VISIBLE
 10
149.6415586761831
 20
121.1335104599092
 30
0.0
  0
VERTEX
  5
507
  8
VISIBLE
 10
149.6206755555595
 20
121.1967406539146
 30
0.0
  0
VERTEX
  5
508
  8
VISIBLE
 10
149.5977072864658
 20
121.259237490046
 30
0.0
  0
VERTEX
  5
509
  8
VISIBLE
 10
149.5726754249584
 20
121.3209282588722
 30
0.0
  0
VERTEX
  5
50A
  8
VISIBLE
 10
149.5456015270942
 20
121.3817402509622
 30
0.0
  0
VERTEX
  5
50B
  8
VISIBLE
 10
149.5165071489297
 20
121.441600756885
 30
0.0
  0
VERTEX
  5
50C
  8
VISIBLE
 10
149.4854138465215
 20
121.5004370672094
 30
0.0
  0
VERTEX
  5
50D
  8
VISIBLE
 10
149.4523431759264
 20
121.5581764725045
 30
0.0
  0
VERTEX
  5
50E
  8
VISIBLE
 10
149.4173222617975
 20
121.6147501436057
 30
0.0
  0
VERTEX
  5
50F
  8
VISIBLE
 10
149.3804005031735
 20
121.6701047724148
 30
0.0
  0
VERTEX
  5
510
  8
VISIBLE
 10
149.34163286769
 20
121.7241909311001
 30
0.0
  0
VERTEX
  5
511
  8
VISIBLE
 10
149.3010743229821
 20
121.7769591918299
 30
0.0
  0
VERTEX
  5
512
  8
VISIBLE
 10
149.2587798366852
 20
121.8283601267726
 30
0.0
  0
VERTEX
  5
513
  8
VISIBLE
 10
149.2148043764348
 20
121.8783443080965
 30
0.0
  0
VERTEX
  5
514
  8
VISIBLE
 10
149.169202909866
 20
121.92686230797
 30
0.0
  0
VERTEX
  5
515
  8
VISIBLE
 10
149.1220304046144
 20
121.9738646985613
 30
0.0
  0
VERTEX
  5
516
  8
VISIBLE
 10
149.0733418283151
 20
122.0193020520388
 30
0.0
  0
VERTEX
  5
517
  8
VISIBLE
 10
149.0231921486036
 20
122.0631249405708
 30
0.0
  0
VERTEX
  5
518
  8
VISIBLE
 10
148.9716363331152
 20
122.1052839363256
 30
0.0
  0
VERTEX
  5
519
  8
VISIBLE
 10
148.9187293494852
 20
122.1457296114717
 30
0.0
  0
VERTEX
  5
51A
  8
VISIBLE
 10
148.864526165349
 20
122.1844125381773
 30
0.0
  0
VERTEX
  5
51B
  8
VISIBLE
 10
148.8090817483419
 20
122.2212832886107
 30
0.0
  0
VERTEX
  5
51C
  8
VISIBLE
 10
148.7524510660992
 20
122.2562924349402
 30
0.0
  0
VERTEX
  5
51D
  8
VISIBLE
 10
148.6946890862564
 20
122.2893905493344
 30
0.0
  0
SEQEND
  5
5AD
  8
VISIBLE
  0
POLYLINE
  5
291
  8
VISIBLE
 66
     1
 10
0.0
 20
0.0
 30
0.0
  0
VERTEX
  5
51E
  8
VISIBLE
 10
148.6946890862563
 20
122.2893905493344
 30
0.0
  0
VERTEX
  5
51F
  8
VISIBLE
 10
148.658739845799
 20
122.3087709437637
 30
0.0
  0
VERTEX
  5
520
  8
VISIBLE
 10
148.6224191226287
 20
122.3274987320235
 30
0.0
  0
VERTEX
  5
521
  8
VISIBLE
 10
148.5857414900623
 20
122.3455586146835
 30
0.0
  0
VERTEX
  5
522
  8
VISIBLE
 10
148.5487215214163
 20
122.3629352923132
 30
0.0
  0
VERTEX
  5
523
  8
VISIBLE
 10
148.5113737900075
 20
122.3796134654821
 30
0.0
  0
VERTEX
  5
524
  8
VISIBLE
 10
148.4737128691525
 20
122.3955778347598
 30
0.0
  0
VERTEX
  5
525
  8
VISIBLE
 10
148.4357533321682
 20
122.4108131007159
 30
0.0
  0
VERTEX
  5
526
  8
VISIBLE
 10
148.3975097523711
 20
122.4253039639199
 30
0.0
  0
VERTEX
  5
527
  8
VISIBLE
 10
148.358996703078
 20
122.4390351249413
 30
0.0
  0
VERTEX
  5
528
  8
VISIBLE
 10
148.3202287576055
 20
122.4519912843497
 30
0.0
  0
VERTEX
  5
529
  8
VISIBLE
 10
148.2812204892706
 20
122.4641571427147
 30
0.0
  0
VERTEX
  5
52A
  8
VISIBLE
 10
148.2419864713896
 20
122.4755174006058
 30
0.0
  0
VERTEX
  5
52B
  8
VISIBLE
 10
148.2025412772795
 20
122.4860567585926
 30
0.0
  0
VERTEX
  5
52C
  8
VISIBLE
 10
148.1628994802568
 20
122.4957599172447
 30
0.0
  0
VERTEX
  5
52D
  8
VISIBLE
 10
148.1230756536384
 20
122.5046115771315
 30
0.0
  0
VERTEX
  5
52E
  8
VISIBLE
 10
148.0830843707407
 20
122.5125964388226
 30
0.0
  0
VERTEX
  5
52F
  8
VISIBLE
 10
148.0429402048808
 20
122.5196992028877
 30
0.0
  0
VERTEX
  5
530
  8
VISIBLE
 10
148.002657729375
 20
122.5259045698961
 30
0.0
  0
VERTEX
  5
531
  8
VISIBLE
 10
147.9622515175402
 20
122.5311972404176
 30
0.0
  0
VERTEX
  5
532
  8
VISIBLE
 10
147.9217361426932
 20
122.5355619150216
 30
0.0
  0
VERTEX
  5
533
  8
VISIBLE
 10
147.8811261781505
 20
122.5389832942778
 30
0.0
  0
VERTEX
  5
534
  8
VISIBLE
 10
147.8404361972289
 20
122.5414460787556
 30
0.0
  0
VERTEX
  5
535
  8
VISIBLE
 10
147.7996807732451
 20
122.5429349690246
 30
0.0
  0
VERTEX
  5
536
  8
VISIBLE
 10
147.7588744795158
 20
122.5434346656544
 30
0.0
  0
SEQEND
  5
5AE
  8
VISIBLE
  0
LINE
  5
292
  8
VISIBLE
 10
144.7946890862564
 20
122.5434346656544
 30
0.0
 11
147.7588744795158
 21
122.5434346656544
 31
0.0
  0
LINE
  5
293
  8
VISIBLE
 10
144.7946890862564
 20
124.3434346656546
 30
0.0
 11
144.7946890862564
 21
122.5434346656544
 31
0.0
  0
LINE
  5
294
  8
VISIBLE
 10
144.2946890862578
 20
124.8434346656529
 30
0.0
 11
144.7946890862564
 21
124.3434346656546
 31
0.0
  0
LINE
  5
295
  8
VISIBLE
 10
144.2946890862578
 20
124.8434346656529
 30
0.0
 11
141.2946915559244
 21
124.8434346656529
 31
0.0
  0
LINE
  5
296
  8
VISIBLE
 10
141.2946915559244
 20
128.1434346656544
 30
0.0
 11
141.2946915559244
 21
124.8434346656529
 31
0.0
  0
LINE
  5
297
  8
VISIBLE
 10
138.2946915559244
 20
128.1434346656544
 30
0.0
 11
141.2946915559244
 21
128.1434346656544
 31
0.0
  0
LINE
  5
298
  8
VISIBLE
 10
138.2946915559244
 20
128.1434346656544
 30
0.0
 11
138.2946915559244
 21
124.8434346656532
 31
0.0
  0
LINE
  5
299
  8
VISIBLE
 10
129.7446890862564
 20
114.3434346656544
 30
0.0
 11
126.2946915559244
 21
114.3434346656544
 31
0.0
  0
LINE
  5
29A
  8
VISIBLE
 10
123.2946915559244
 20
111.3434346656544
 30
0.0
 11
126.2946915559244
 21
111.3434346656544
 31
0.0
  0
LINE
  5
29B
  8
VISIBLE
 10
123.2946915559244
 20
138.3434346656544
 30
0.0
 11
123.2946915559244
 21
111.3434346656544
 31
0.0
  0
LINE
  5
29C
  8
VISIBLE
 10
123.2946915559244
 20
138.3434346656544
 30
0.0
 11
126.2946915559244
 21
138.3434346656544
 31
0.0
  0
LINE
  5
29F
  8
VISIBLE
 10
103.4865944895401
 20
125.05124145185
 30
0.0
 11
100.4865920198708
 21
125.05124145185
 31
0.0
  0
LINE
  5
2A0
  8
VISIBLE
 10
99.98659201987205
 20
124.5512414518512
 30
0.0
 11
100.4865920198708
 21
125.05124145185
 31
0.0
  0
LINE
  5
2A1
  8
VISIBLE
 10
99.98659201987203
 20
122.7512414518512
 30
0.0
 11
99.98659201987205
 21
124.5512414518512
 31
0.0
  0
LINE
  5
2A2
  8
VISIBLE
 10
97.02240662661487
 20
122.7512414518512
 30
0.0
 11
99.98659201987203
 21
122.7512414518512
 31
0.0
  0
POLYLINE
  5
2A3
  8
VISIBLE
 66
     1
 10
0.0
 20
0.0
 30
0.0
  0
VERTEX
  5
537
  8
VISIBLE
 10
96.08661865826635
 20
122.497212011996
 30
0.0
  0
VERTEX
  5
538
  8
VISIBLE
 10
96.12256613109008
 20
122.5165907893571
 30
0.0
  0
VERTEX
  5
539
  8
VISIBLE
 10
96.15888530625374
 20
122.5353170828808
 30
0.0
  0
VERTEX
  5
53A
  8
VISIBLE
 10
96.19556158829033
 20
122.5533755883786
 30
0.0
  0
VERTEX
  5
53B
  8
VISIBLE
 10
96.23258038173286
 20
122.5707510016619
 30
0.0
  0
VERTEX
  5
53C
  8
VISIBLE
 10
96.26992709111423
 20
122.587428018542
 30
0.0
  0
VERTEX
  5
53D
  8
VISIBLE
 10
96.3075871209675
 20
122.6033913348304
 30
0.0
  0
VERTEX
  5
53E
  8
VISIBLE
 10
96.34554587582558
 20
122.6186256463386
 30
0.0
  0
VERTEX
  5
53F
  8
VISIBLE
 10
96.3837887602215
 20
122.6331156488779
 30
0.0
  0
VERTEX
  5
540
  8
VISIBLE
 10
96.42230117868823
 20
122.6468460382596
 30
0.0
  0
VERTEX
  5
541
  8
VISIBLE
 10
96.46106853575871
 20
122.6598015102953
 30
0.0
  0
VERTEX
  5
542
  8
VISIBLE
 10
96.50007623596603
 20
122.6719667607965
 30
0.0
  0
VERTEX
  5
543
  8
VISIBLE
 10
96.53930968384304
 20
122.6833264855743
 30
0.0
  0
VERTEX
  5
544
  8
VISIBLE
 10
96.57875428392279
 20
122.6938653804404
 30
0.0
  0
VERTEX
  5
545
  8
VISIBLE
 10
96.61839544073825
 20
122.703568141206
 30
0.0
  0
VERTEX
  5
546
  8
VISIBLE
 10
96.6582185588224
 20
122.7124194636827
 30
0.0
  0
VERTEX
  5
547
  8
VISIBLE
 10
96.69820904270821
 20
122.7204040436818
 30
0.0
  0
VERTEX
  5
548
  8
VISIBLE
 10
96.7383522969287
 20
122.7275065770147
 30
0.0
  0
VERTEX
  5
549
  8
VISIBLE
 10
96.7786337260168
 20
122.7337117594928
 30
0.0
  0
VERTEX
  5
54A
  8
VISIBLE
 10
96.81903873450551
 20
122.7390042869277
 30
0.0
  0
VERTEX
  5
54B
  8
VISIBLE
 10
96.85955272692782
 20
122.7433688551306
 30
0.0
  0
VERTEX
  5
54C
  8
VISIBLE
 10
96.90016110781667
 20
122.7467901599129
 30
0.0
  0
VERTEX
  5
54D
  8
VISIBLE
 10
96.9408492817051
 20
122.7492528970862
 30
0.0
  0
VERTEX
  5
54E
  8
VISIBLE
 10
96.98160265312607
 20
122.7507417624618
 30
0.0
  0
VERTEX
  5
54F
  8
VISIBLE
 10
97.02240662661255
 20
122.7512414518512
 30
0.0
  0
SEQEND
  5
5AF
  8
VISIBLE
  0
POLYLINE
  5
2A4
  8
VISIBLE
 66
     1
 10
0.0
 20
0.0
 30
0.0
  0
VERTEX
  5
550
  8
VISIBLE
 10
95.049162774842
 20
120.7512414518512
 30
0.0
  0
VERTEX
  5
551
  8
VISIBLE
 10
95.05030961191953
 20
120.817810670879
 30
0.0
  0
VERTEX
  5
552
  8
VISIBLE
 10
95.05373573141344
 20
120.8842988295799
 30
0.0
  0
VERTEX
  5
553
  8
VISIBLE
 10
95.05941954571583
 20
120.9506333800927
 30
0.0
  0
VERTEX
  5
554
  8
VISIBLE
 10
95.06733946721864
 20
121.0167417745559
 30
0.0
  0
VERTEX
  5
555
  8
VISIBLE
 10
95.077473908314
 20
121.0825514651082
 30
0.0
  0
VERTEX
  5
556
  8
VISIBLE
 10
95.0898012813939
 20
121.1479899038884
 30
0.0
  0
VERTEX
  5
557
  8
VISIBLE
 10
95.10429999885041
 20
121.212984543035
 30
0.0
  0
VERTEX
  5
558
  8
VISIBLE
 10
95.12094847307554
 20
121.2774628346868
 30
0.0
  0
VERTEX
  5
559
  8
VISIBLE
 10
95.13972511646135
 20
121.3413522309824
 30
0.0
  0
VERTEX
  5
55A
  8
VISIBLE
 10
95.16060834139986
 20
121.4045801840605
 30
0.0
  0
VERTEX
  5
55B
  8
VISIBLE
 10
95.18357656028311
 20
121.4670741460598
 30
0.0
  0
VERTEX
  5
55C
  8
VISIBLE
 10
95.20860818550315
 20
121.5287615691188
 30
0.0
  0
VERTEX
  5
55D
  8
VISIBLE
 10
95.23568162945202
 20
121.5895699053764
 30
0.0
  0
VERTEX
  5
55E
  8
VISIBLE
 10
95.26477530452172
 20
121.6494266069711
 30
0.0
  0
VERTEX
  5
55F
  8
VISIBLE
 10
95.29586762310434
 20
121.7082591260417
 30
0.0
  0
VERTEX
  5
560
  8
VISIBLE
 10
95.3289369975919
 20
121.7659949147268
 30
0.0
  0
VERTEX
  5
561
  8
VISIBLE
 10
95.36395630022515
 20
121.8225652823081
 30
0.0
  0
VERTEX
  5
562
  8
VISIBLE
 10
95.40087624263994
 20
121.8779169666399
 30
0.0
  0
VERTEX
  5
563
  8
VISIBLE
 10
95.43964199632069
 20
121.9320005627195
 30
0.0
  0
VERTEX
  5
564
  8
VISIBLE
 10
95.48019873275199
 20
121.9847666655442
 30
0.0
  0
VERTEX
  5
565
  8
VISIBLE
 10
95.52249162341832
 20
122.0361658701112
 30
0.0
  0
VERTEX
  5
566
  8
VISIBLE
 10
95.5664658398042
 20
122.086148771418
 30
0.0
  0
VERTEX
  5
567
  8
VISIBLE
 10
95.61206655339417
 20
122.1346659644617
 30
0.0
  0
VERTEX
  5
568
  8
VISIBLE
 10
95.65923893567268
 20
122.1816680442397
 30
0.0
  0
VERTEX
  5
569
  8
VISIBLE
 10
95.70792815812432
 20
122.2271056057493
 30
0.0
  0
VERTEX
  5
56A
  8
VISIBLE
 10
95.75807939223357
 20
122.2709292439878
 30
0.0
  0
VERTEX
  5
56B
  8
VISIBLE
 10
95.80963780948497
 20
122.3130895539525
 30
0.0
  0
VERTEX
  5
56C
  8
VISIBLE
 10
95.86254858136299
 20
122.3535371306406
 30
0.0
  0
VERTEX
  5
56D
  8
VISIBLE
 10
95.91675687935219
 20
122.3922225690497
 30
0.0
  0
VERTEX
  5
56E
  8
VISIBLE
 10
95.97220787493706
 20
122.4290964641767
 30
0.0
  0
VERTEX
  5
56F
  8
VISIBLE
 10
96.0288467396021
 20
122.4641094110192
 30
0.0
  0
VERTEX
  5
570
  8
VISIBLE
 10
96.08661864483189
 20
122.4972120045744
 30
0.0
  0
SEQEND
  5
5B0
  8
VISIBLE
  0
LINE
  5
2A5
  8
VISIBLE
 10
95.049162774842
 20
120.7512414518512
 30
0.0
 11
95.0491627748409
 21
117.6512414518512
 31
0.0
  0
LINE
  5
2A6
  8
VISIBLE
 10
94.98646702065322
 20
117.6512414518512
 30
0.0
 11
95.0491627748409
 21
117.6512414518512
 31
0.0
  0
LINE
  5
2A7
  8
VISIBLE
 10
94.98646702065322
 20
116.618928119055
 30
0.0
 11
94.98646702065322
 21
117.6512414518512
 31
0.0
  0
ARC
  5
2A8
  8
VISIBLE
 10
95.43659201987195
 20
116.4012414518512
 30
0.0
 40
0.499999999999948
 50
154.1909478967517
 51
180.0000000000016
  0
LINE
  5
2A9
  8
VISIBLE
 10
94.93659201987202
 20
114.5512414518512
 30
0.0
 11
94.93659201987202
 21
116.4012414518512
 31
0.0
  0
LINE
  5
2AA
  8
VISIBLE
 10
91.48659448954005
 20
114.5512414518512
 30
0.0
 11
91.48659448954005
 21
111.5512414518512
 31
0.0
  0
LINE
  5
2AB
  8
VISIBLE
 10
91.48659448954005
 20
135.5512414518512
 30
0.0
 11
91.48659448954005
 21
138.5512414518512
 31
0.0
  0
LINE
  5
2AC
  8
VISIBLE
 10
118.4865944895401
 20
135.5512414518512
 30
0.0
 11
91.48659448954005
 21
135.5512414518512
 31
0.0
  0
LINE
  5
2AD
  8
VISIBLE
 10
118.4865944895401
 20
135.5512414518512
 30
0.0
 11
118.4865944895401
 21
138.5512414518512
 31
0.0
  0
LINE
  5
2AE
  8
VISIBLE
 10
121.4865944895401
 20
138.5512414518512
 30
0.0
 11
118.4865944895401
 21
138.5512414518512
 31
0.0
  0
LINE
  5
2AF
  8
VISIBLE
 10
121.4865944895401
 20
138.5512414518512
 30
0.0
 11
121.4865944895401
 21
111.5512414518512
 31
0.0
  0
LINE
  5
2B0
  8
VISIBLE
 10
121.4865944895401
 20
111.5512414518512
 30
0.0
 11
118.4865944895401
 21
111.5512414518512
 31
0.0
  0
LINE
  5
2B1
  8
VISIBLE
 10
118.4865944895401
 20
114.5512414518512
 30
0.0
 11
118.4865944895401
 21
111.5512414518512
 31
0.0
  0
LINE
  5
2B2
  8
VISIBLE
 10
118.4865944895401
 20
114.5512414518512
 30
0.0
 11
115.036592019872
 21
114.5512414518512
 31
0.0
  0
LINE
  5
2B3
  8
VISIBLE
 10
115.036592019872
 20
116.4012414518512
 30
0.0
 11
115.036592019872
 21
114.5512414518512
 31
0.0
  0
ARC
  5
2B4
  8
VISIBLE
 10
114.5365920198721
 20
116.4012414518512
 30
0.0
 40
0.4999999999999497
 50
359.9999999999984
 51
25.80905210324608
  0
LINE
  5
2B5
  8
VISIBLE
 10
114.9867170190908
 20
117.6512414518512
 30
0.0
 11
114.9867170190908
 21
116.618928119055
 31
0.0
  0
LINE
  5
2B6
  8
VISIBLE
 10
114.9240212649021
 20
117.6512414518512
 30
0.0
 11
114.9867170190908
 21
117.6512414518512
 31
0.0
  0
LINE
  5
2B7
  8
VISIBLE
 10
114.9240212649021
 20
120.7512414518512
 30
0.0
 11
114.9240212649021
 21
117.6512414518512
 31
0.0
  0
POLYLINE
  5
2B8
  8
VISIBLE
 66
     1
 10
0.0
 20
0.0
 30
0.0
  0
VERTEX
  5
571
  8
VISIBLE
 10
114.9240212649032
 20
120.7512414518512
 30
0.0
  0
VERTEX
  5
572
  8
VISIBLE
 10
114.9228745030609
 20
120.817799942325
 30
0.0
  0
VERTEX
  5
573
  8
VISIBLE
 10
114.9194485882386
 20
120.8842794598044
 30
0.0
  0
VERTEX
  5
574
  8
VISIBLE
 10
114.9137650764928
 20
120.9506072948583
 30
0.0
  0
VERTEX
  5
575
  8
VISIBLE
 10
114.9058455238803
 20
121.0167107380556
 30
0.0
  0
VERTEX
  5
576
  8
VISIBLE
 10
114.8957114864576
 20
121.0825170799653
 30
0.0
  0
VERTEX
  5
577
  8
VISIBLE
 10
114.8833845202815
 20
121.1479536111562
 30
0.0
  0
VERTEX
  5
578
  8
VISIBLE
 10
114.8688861814085
 20
121.2129476221973
 30
0.0
  0
VERTEX
  5
579
  8
VISIBLE
 10
114.8522380258954
 20
121.2774264036576
 30
0.0
  0
VERTEX
  5
57A
  8
VISIBLE
 10
114.8334616097987
 20
121.341317246106
 30
0.0
  0
VERTEX
  5
57B
  8
VISIBLE
 10
114.8125784891752
 20
121.4045474401114
 30
0.0
  0
VERTEX
  5
57C
  8
VISIBLE
 10
114.7896102200814
 20
121.4670442762427
 30
0.0
  0
VERTEX
  5
57D
  8
VISIBLE
 10
114.7645783585741
 20
121.528735045069
 30
0.0
  0
VERTEX
  5
57E
  8
VISIBLE
 10
114.7375044607099
 20
121.589547037159
 30
0.0
  0
VERTEX
  5
57F
  8
VISIBLE
 10
114.7084100825453
 20
121.6494075430818
 30
0.0
  0
VERTEX
  5
580
  8
VISIBLE
 10
114.6773167801372
 20
121.7082438534062
 30
0.0
  0
VERTEX
  5
581
  8
VISIBLE
 10
114.6442461095421
 20
121.7659832587013
 30
0.0
  0
VERTEX
  5
582
  8
VISIBLE
 10
114.6092251954131
 20
121.8225569298025
 30
0.0
  0
VERTEX
  5
583
  8
VISIBLE
 10
114.5723034367892
 20
121.8779115586116
 30
0.0
  0
VERTEX
  5
584
  8
VISIBLE
 10
114.5335358013056
 20
121.9319977172969
 30
0.0
  0
VERTEX
  5
585
  8
VISIBLE
 10
114.4929772565977
 20
121.9847659780267
 30
0.0
  0
VERTEX
  5
586
  8
VISIBLE
 10
114.4506827703009
 20
122.0361669129694
 30
0.0
  0
VERTEX
  5
587
  8
VISIBLE
 10
114.4067073100504
 20
122.0861510942933
 30
0.0
  0
VERTEX
  5
588
  8
VISIBLE
 10
114.3611058434817
 20
122.1346690941668
 30
0.0
  0
VERTEX
  5
589
  8
VISIBLE
 10
114.31393333823
 20
122.1816714847581
 30
0.0
  0
VERTEX
  5
58A
  8
VISIBLE
 10
114.2652447619308
 20
122.2271088382356
 30
0.0
  0
VERTEX
  5
58B
  8
VISIBLE
 10
114.2150950822193
 20
122.2709317267676
 30
0.0
  0
VERTEX
  5
58C
  8
VISIBLE
 10
114.1635392667309
 20
122.3130907225224
 30
0.0
  0
VERTEX
  5
58D
  8
VISIBLE
 10
114.1106322831009
 20
122.3535363976685
 30
0.0
  0
VERTEX
  5
58E
  8
VISIBLE
 10
114.0564290989647
 20
122.3922193243741
 30
0.0
  0
VERTEX
  5
58F
  8
VISIBLE
 10
114.0009846819576
 20
122.4290900748075
 30
0.0
  0
VERTEX
  5
590
  8
VISIBLE
 10
113.9443539997149
 20
122.464099221137
 30
0.0
  0
VERTEX
  5
591
  8
VISIBLE
 10
113.886592019872
 20
122.4971973355311
 30
0.0
  0
SEQEND
  5
5B1
  8
VISIBLE
  0
POLYLINE
  5
2B9
  8
VISIBLE
 66
     1
 10
0.0
 20
0.0
 30
0.0
  0
VERTEX
  5
592
  8
VISIBLE
 10
113.886592019872
 20
122.4971973355311
 30
0.0
  0
VERTEX
  5
593
  8
VISIBLE
 10
113.8506427794147
 20
122.5165777299604
 30
0.0
  0
VERTEX
  5
594
  8
VISIBLE
 10
113.8143220562444
 20
122.5353055182203
 30
0.0
  0
VERTEX
  5
595
  8
VISIBLE
 10
113.777644423678
 20
122.5533654008803
 30
0.0
  0
VERTEX
  5
596
  8
VISIBLE
 10
113.740624455032
 20
122.57074207851
 30
0.0
  0
VERTEX
  5
597
  8
VISIBLE
 10
113.7032767236232
 20
122.5874202516789
 30
0.0
  0
VERTEX
  5
598
  8
VISIBLE
 10
113.6656158027682
 20
122.6033846209566
 30
0.0
  0
VERTEX
  5
599
  8
VISIBLE
 10
113.6276562657838
 20
122.6186198869127
 30
0.0
  0
VERTEX
  5
59A
  8
VISIBLE
 10
113.5894126859868
 20
122.6331107501167
 30
0.0
  0
VERTEX
  5
59B
  8
VISIBLE
 10
113.5508996366937
 20
122.6468419111381
 30
0.0
  0
VERTEX
  5
59C
  8
VISIBLE
 10
113.5121316912212
 20
122.6597980705465
 30
0.0
  0
VERTEX
  5
59D
  8
VISIBLE
 10
113.4731234228862
 20
122.6719639289115
 30
0.0
  0
VERTEX
  5
59E
  8
VISIBLE
 10
113.4338894050053
 20
122.6833241868026
 30
0.0
  0
VERTEX
  5
59F
  8
VISIBLE
 10
113.3944442108951
 20
122.6938635447894
 30
0.0
  0
VERTEX
  5
5A0
  8
VISIBLE
 10
113.3548024138725
 20
122.7035667034414
 30
0.0
  0
VERTEX
  5
5A1
  8
VISIBLE
 10
113.314978587254
 20
122.7124183633283
 30
0.0
  0
VERTEX
  5
5A2
  8
VISIBLE
 10
113.2749873043564
 20
122.7204032250194
 30
0.0
  0
VERTEX
  5
5A3
  8
VISIBLE
 10
113.2348431384964
 20
122.7275059890844
 30
0.0
  0
VERTEX
  5
5A4
  8
VISIBLE
 10
113.1945606629907
 20
122.7337113560929
 30
0.0
  0
VERTEX
  5
5A5
  8
VISIBLE
 10
113.1541544511559
 20
122.7390040266144
 30
0.0
  0
VERTEX
  5
5A6
  8
VISIBLE
 10
113.1136390763089
 20
122.7433687012184
 30
0.0
  0
VERTEX
  5
5A7
  8
VISIBLE
 10
113.0730291117662
 20
122.7467900804746
 30
0.0
  0
VERTEX
  5
5A8
  8
VISIBLE
 10
113.0323391308446
 20
122.7492528649524
 30
0.0
  0
VERTEX
  5
5A9
  8
VISIBLE
 10
112.9915837068608
 20
122.7507417552214
 30
0.0
  0
VERTEX
  5
5AA
  8
VISIBLE
 10
112.9507774131315
 20
122.7512414518512
 30
0.0
  0
SEQEND
  5
5B2
  8
VISIBLE
  0
LINE
  5
2BA
  8
VISIBLE
 10
109.986592019872
 20
122.7512414518512
 30
0.0
 11
112.9507774131315
 21
122.7512414518512
 31
0.0
  0
LINE
  5
2BB
  8
VISIBLE
 10
109.986592019872
 20
124.5512414518514
 30
0.0
 11
109.986592019872
 21
122.7512414518512
 31
0.0
  0
LINE
  5
2BC
  8
VISIBLE
 10
109.4865920198735
 20
125.0512414518497
 30
0.0
 11
109.986592019872
 21
124.5512414518514
 31
0.0
  0
LINE
  5
2BD
  8
VISIBLE
 10
109.4865920198735
 20
125.0512414518497
 30
0.0
 11
106.4865944895401
 21
125.0512414518497
 31
0.0
  0
LINE
  5
2BE
  8
VISIBLE
 10
106.4865944895401
 20
128.3512414518512
 30
0.0
 11
106.4865944895401
 21
125.0512414518497
 31
0.0
  0
LINE
  5
2BF
  8
VISIBLE
 10
103.4865944895401
 20
128.3512414518512
 30
0.0
 11
106.4865944895401
 21
128.3512414518512
 31
0.0
  0
LINE
  5
2C0
  8
VISIBLE
 10
103.4865944895401
 20
128.3512414518512
 30
0.0
 11
103.4865944895401
 21
125.05124145185
 31
0.0
  0
LINE
  5
2C1
  8
VISIBLE
 10
94.93659201987202
 20
114.5512414518512
 30
0.0
 11
91.48659448954005
 21
114.5512414518512
 31
0.0
  0
LINE
  5
2C2
  8
VISIBLE
 10
88.48659448954005
 20
111.5512414518512
 30
0.0
 11
91.48659448954005
 21
111.5512414518512
 31
0.0
  0
LINE
  5
2C3
  8
VISIBLE
 10
88.48659448954005
 20
138.5512414518512
 30
0.0
 11
88.48659448954005
 21
111.5512414518512
 31
0.0
  0
LINE
  5
2C4
  8
VISIBLE
 10
88.48659448954005
 20
138.5512414518512
 30
0.0
 11
91.48659448954005
 21
138.5512414518512
 31
0.0
  0
LINE
  5
2C7
  8
VISIBLE
 10
221.3773746599919
 20
62.64071927504331
 30
0.0
 11
221.3773746599919
 21
63.64071927504331
 31
0.0
  0
LINE
  5
2C8
  8
VISIBLE
 10
218.8773746599919
 20
63.64071927504331
 30
0.0
 11
221.3773746599919
 21
63.64071927504331
 31
0.0
  0
LINE
  5
2C9
  8
VISIBLE
 10
218.8773746599919
 20
62.64071927504331
 30
0.0
 11
218.8773746599919
 21
63.64071927504331
 31
0.0
  0
LINE
  5
2CA
  8
VISIBLE
 10
218.8773746599919
 20
62.64071927504331
 30
0.0
 11
221.3773746599919
 21
62.64071927504331
 31
0.0
  0
LINE
  5
2CB
  8
VISIBLE
 10
218.8773746599919
 20
79.64071927504328
 30
0.0
 11
218.8773746599919
 21
78.64071927504328
 31
0.0
  0
LINE
  5
2CC
  8
VISIBLE
 10
218.8773746599919
 20
78.64071927504328
 30
0.0
 11
221.3773746599919
 21
78.64071927504328
 31
0.0
  0
LINE
  5
2CD
  8
VISIBLE
 10
221.3773746599919
 20
79.64071927504328
 30
0.0
 11
221.3773746599919
 21
78.64071927504328
 31
0.0
  0
LINE
  5
2CE
  8
VISIBLE
 10
218.8773746599919
 20
79.64071927504328
 30
0.0
 11
221.3773746599919
 21
79.64071927504328
 31
0.0
  0
LINE
  5
2CF
  8
VISIBLE
 10
202.7273746599919
 20
72.3907192750433
 30
0.0
 11
202.7273746599919
 21
69.8907192750433
 31
0.0
  0
LINE
  5
2D0
  8
VISIBLE
 10
203.7273746599919
 20
69.8907192750433
 30
0.0
 11
202.7273746599919
 21
69.8907192750433
 31
0.0
  0
LINE
  5
2D1
  8
VISIBLE
 10
203.7273746599919
 20
72.3907192750433
 30
0.0
 11
203.7273746599919
 21
69.8907192750433
 31
0.0
  0
LINE
  5
2D2
  8
VISIBLE
 10
203.7273746599919
 20
72.3907192750433
 30
0.0
 11
202.7273746599919
 21
72.3907192750433
 31
0.0
  0
LINE
  5
2D3
  8
VISIBLE
 10
226.1273746599919
 20
57.6407192750433
 30
0.0
 11
214.1273746599919
 21
57.64071927504329
 31
0.0
  0
LINE
  5
2D4
  8
VISIBLE
 10
214.1273746599919
 20
57.64071927504329
 30
0.0
 11
214.1273746599919
 21
60.6407192750433
 31
0.0
  0
LINE
  5
2D5
  8
VISIBLE
 10
214.1273746599919
 20
60.6407192750433
 30
0.0
 11
200.7273746599919
 21
60.6407192750433
 31
0.0
  0
LINE
  5
2D6
  8
VISIBLE
 10
200.7273746599919
 20
81.6407192750433
 30
0.0
 11
200.7273746599919
 21
60.6407192750433
 31
0.0
  0
LINE
  5
2D7
  8
VISIBLE
 10
214.1273746599919
 20
81.6407192750433
 30
0.0
 11
200.7273746599919
 21
81.6407192750433
 31
0.0
  0
LINE
  5
2D8
  8
VISIBLE
 10
214.1273746599919
 20
84.6407192750433
 30
0.0
 11
214.1273746599919
 21
81.6407192750433
 31
0.0
  0
LINE
  5
2D9
  8
VISIBLE
 10
226.1273746599919
 20
84.6407192750433
 30
0.0
 11
214.1273746599919
 21
84.6407192750433
 31
0.0
  0
LINE
  5
2DA
  8
VISIBLE
 10
226.1273746599919
 20
84.6407192750433
 30
0.0
 11
226.1273746599919
 21
81.6407192750433
 31
0.0
  0
LINE
  5
2DB
  8
VISIBLE
 10
239.5273746599919
 20
81.6407192750433
 30
0.0
 11
226.1273746599919
 21
81.6407192750433
 31
0.0
  0
LINE
  5
2DC
  8
VISIBLE
 10
239.5273746599919
 20
81.6407192750433
 30
0.0
 11
239.5273746599919
 21
60.6407192750433
 31
0.0
  0
LINE
  5
2DD
  8
VISIBLE
 10
239.5273746599919
 20
60.6407192750433
 30
0.0
 11
226.1273746599919
 21
60.6407192750433
 31
0.0
  0
LINE
  5
2DE
  8
VISIBLE
 10
226.1273746599919
 20
57.6407192750433
 30
0.0
 11
226.1273746599919
 21
60.6407192750433
 31
0.0
  0
LINE
  5
2DF
  8
VISIBLE
 10
236.5273746599919
 20
69.8907192750433
 30
0.0
 11
237.5273746599919
 21
69.8907192750433
 31
0.0
  0
LINE
  5
2E0
  8
VISIBLE
 10
237.5273746599919
 20
72.3907192750433
 30
0.0
 11
237.5273746599919
 21
69.8907192750433
 31
0.0
  0
LINE
  5
2E1
  8
VISIBLE
 10
236.5273746599919
 20
72.3907192750433
 30
0.0
 11
237.5273746599919
 21
72.3907192750433
 31
0.0
  0
LINE
  5
2E2
  8
VISIBLE
 10
236.5273746599919
 20
72.3907192750433
 30
0.0
 11
236.5273746599919
 21
69.8907192750433
 31
0.0
  0
LINE
  5
2E5
  8
VISIBLE
 10
102.3534540826195
 20
32.97420585968941
 30
0.0
 11
102.3534540826195
 21
33.97420585968941
 31
0.0
  0
LINE
  5
2E6
  8
VISIBLE
 10
99.85345408261945
 20
33.97420585968941
 30
0.0
 11
102.3534540826195
 21
33.97420585968941
 31
0.0
  0
LINE
  5
2E7
  8
VISIBLE
 10
99.85345408261945
 20
32.97420585968941
 30
0.0
 11
99.85345408261945
 21
33.97420585968941
 31
0.0
  0
LINE
  5
2E8
  8
VISIBLE
 10
99.85345408261945
 20
32.97420585968941
 30
0.0
 11
102.3534540826195
 21
32.97420585968941
 31
0.0
  0
LINE
  5
2E9
  8
VISIBLE
 10
99.85345408261945
 20
49.97420585968939
 30
0.0
 11
99.85345408261945
 21
48.97420585968939
 31
0.0
  0
LINE
  5
2EA
  8
VISIBLE
 10
99.85345408261945
 20
48.97420585968939
 30
0.0
 11
102.3534540826195
 21
48.97420585968939
 31
0.0
  0
LINE
  5
2EB
  8
VISIBLE
 10
102.3534540826195
 20
49.97420585968939
 30
0.0
 11
102.3534540826195
 21
48.97420585968939
 31
0.0
  0
LINE
  5
2EC
  8
VISIBLE
 10
99.85345408261945
 20
49.97420585968939
 30
0.0
 11
102.3534540826195
 21
49.97420585968939
 31
0.0
  0
LINE
  5
2ED
  8
VISIBLE
 10
83.70345408261944
 20
42.7242058596894
 30
0.0
 11
83.70345408261944
 21
40.22420585968939
 31
0.0
  0
LINE
  5
2EE
  8
VISIBLE
 10
84.70345408261944
 20
40.2242058596894
 30
0.0
 11
83.70345408261944
 21
40.22420585968939
 31
0.0
  0
LINE
  5
2EF
  8
VISIBLE
 10
84.70345408261944
 20
42.72420585968941
 30
0.0
 11
84.70345408261944
 21
40.2242058596894
 31
0.0
  0
LINE
  5
2F0
  8
VISIBLE
 10
84.70345408261944
 20
42.72420585968941
 30
0.0
 11
83.70345408261944
 21
42.7242058596894
 31
0.0
  0
LINE
  5
2F1
  8
VISIBLE
 10
107.1034540826195
 20
27.9742058596894
 30
0.0
 11
95.10345408261945
 21
27.97420585968939
 31
0.0
  0
LINE
  5
2F2
  8
VISIBLE
 10
95.10345408261945
 20
27.97420585968939
 30
0.0
 11
95.10345408261945
 21
30.9742058596894
 31
0.0
  0
LINE
  5
2F3
  8
VISIBLE
 10
95.10345408261945
 20
30.9742058596894
 30
0.0
 11
81.70345408261944
 21
30.9742058596894
 31
0.0
  0
LINE
  5
2F4
  8
VISIBLE
 10
81.70345408261944
 20
51.97420585968941
 30
0.0
 11
81.70345408261944
 21
30.9742058596894
 31
0.0
  0
LINE
  5
2F5
  8
VISIBLE
 10
95.10345408261945
 20
51.9742058596894
 30
0.0
 11
81.70345408261944
 21
51.97420585968941
 31
0.0
  0
LINE
  5
2F6
  8
VISIBLE
 10
95.10345408261945
 20
54.97420585968941
 30
0.0
 11
95.10345408261945
 21
51.9742058596894
 31
0.0
  0
LINE
  5
2F7
  8
VISIBLE
 10
107.1034540826195
 20
54.9742058596894
 30
0.0
 11
95.10345408261945
 21
54.97420585968941
 31
0.0
  0
LINE
  5
2F8
  8
VISIBLE
 10
107.1034540826195
 20
54.9742058596894
 30
0.0
 11
107.1034540826195
 21
51.9742058596894
 31
0.0
  0
LINE
  5
2F9
  8
VISIBLE
 10
120.5034540826195
 20
51.9742058596894
 30
0.0
 11
107.1034540826195
 21
51.9742058596894
 31
0.0
  0
LINE
  5
2FA
  8
VISIBLE
 10
120.5034540826195
 20
51.9742058596894
 30
0.0
 11
120.5034540826195
 21
30.97420585968939
 31
0.0
  0
LINE
  5
2FB
  8
VISIBLE
 10
120.5034540826195
 20
30.97420585968939
 30
0.0
 11
107.1034540826195
 21
30.9742058596894
 31
0.0
  0
LINE
  5
2FC
  8
VISIBLE
 10
107.1034540826195
 20
27.9742058596894
 30
0.0
 11
107.1034540826195
 21
30.9742058596894
 31
0.0
  0
LINE
  5
2FD
  8
VISIBLE
 10
117.5034540826195
 20
40.2242058596894
 30
0.0
 11
118.5034540826195
 21
40.22420585968939
 31
0.0
  0
LINE
  5
2FE
  8
VISIBLE
 10
118.5034540826195
 20
42.72420585968939
 30
0.0
 11
118.5034540826195
 21
40.22420585968939
 31
0.0
  0
LINE
  5
2FF
  8
VISIBLE
 10
117.5034540826195
 20
42.72420585968939
 30
0.0
 11
118.5034540826195
 21
42.72420585968939
 31
0.0
  0
LINE
  5
300
  8
VISIBLE
 10
117.5034540826195
 20
42.72420585968939
 30
0.0
 11
117.5034540826195
 21
40.2242058596894
 31
0.0
  0
LINE
  5
303
  8
VISIBLE
 10
78.88470782789081
 20
225.3441600629596
 30
0.0
 11
78.88470782789081
 21
228.3441600629597
 31
0.0
  0
LINE
  5
304
  8
VISIBLE
 10
78.88470782789081
 20
228.3441600629597
 30
0.0
 11
75.88470782789098
 21
228.3441600629597
 31
0.0
  0
LINE
  5
305
  8
VISIBLE
 10
75.88470782789098
 20
225.3441600629596
 30
0.0
 11
75.88470782789098
 21
228.3441600629597
 31
0.0
  0
LINE
  5
306
  8
VISIBLE
 10
78.88470782789081
 20
225.3441600629596
 30
0.0
 11
75.88470782789098
 21
225.3441600629596
 31
0.0
  0
LINE
  5
307
  8
VISIBLE
 10
70.80845905604092
 20
224.0941600629598
 30
0.0
 11
70.80845905604092
 21
221.5941600629598
 31
0.0
  0
LINE
  5
308
  8
VISIBLE
 10
71.80845905604092
 20
221.5941600629598
 30
0.0
 11
70.80845905604092
 21
221.5941600629598
 31
0.0
  0
LINE
  5
309
  8
VISIBLE
 10
71.80845905604093
 20
224.0941600629598
 30
0.0
 11
71.80845905604092
 21
221.5941600629598
 31
0.0
  0
LINE
  5
30A
  8
VISIBLE
 10
71.80845905604093
 20
224.0941600629598
 30
0.0
 11
70.80845905604092
 21
224.0941600629598
 31
0.0
  0
LINE
  5
30B
  8
VISIBLE
 10
78.88470782789081
 20
258.3441600629603
 30
0.0
 11
75.88470782789098
 21
258.3441600629603
 31
0.0
  0
LINE
  5
30C
  8
VISIBLE
 10
75.88470782789098
 20
258.3441600629603
 30
0.0
 11
75.88470782789086
 21
255.3441600629601
 31
0.0
  0
LINE
  5
30D
  8
VISIBLE
 10
78.88470782789081
 20
255.3441600629601
 30
0.0
 11
75.88470782789086
 21
255.3441600629601
 31
0.0
  0
LINE
  5
30E
  8
VISIBLE
 10
78.88470782789081
 20
258.3441600629603
 30
0.0
 11
78.88470782789081
 21
255.3441600629601
 31
0.0
  0
LINE
  5
30F
  8
VISIBLE
 10
100.5993528547372
 20
267.7467001783627
 30
0.0
 11
102.490395740829
 21
266.1114764007221
 31
0.0
  0
LINE
  5
310
  8
VISIBLE
 10
99.94526334368089
 20
266.9902830239261
 30
0.0
 11
100.5993528547372
 21
267.7467001783627
 31
0.0
  0
LINE
  5
311
  8
VISIBLE
 10
101.8363062297727
 20
265.3550592462854
 30
0.0
 11
99.94526334368089
 21
266.9902830239261
 31
0.0
  0
LINE
  5
312
  8
VISIBLE
 10
102.490395740829
 20
266.1114764007221
 30
0.0
 11
101.8363062297727
 21
265.3550592462854
 31
0.0
  0
LINE
  5
313
  8
VISIBLE
 10
69.80845905604082
 20
255.8441600629635
 30
0.0
 11
69.80845905604082
 21
265.8441600629661
 31
0.0
  0
LINE
  5
314
  8
VISIBLE
 10
69.80845905604082
 20
265.8441600629661
 30
0.0
 11
66.80845905604093
 21
265.8441600629639
 31
0.0
  0
LINE
  5
315
  8
VISIBLE
 10
66.80845905604093
 20
271.8441600629602
 30
0.0
 11
66.80845905604093
 21
265.8441600629639
 31
0.0
  0
LINE
  5
316
  8
VISIBLE
 10
74.78370024847581
 20
277.0060907020222
 30
0.0
 11
66.80845905604093
 21
271.8441600629602
 31
0.0
  0
LINE
  5
317
  8
VISIBLE
 10
74.78370024847581
 20
277.0060907020222
 30
0.0
 11
76.41378360817968
 21
274.4875934833586
 31
0.0
  0
LINE
  5
318
  8
VISIBLE
 10
76.41378360817968
 20
274.4875934833586
 30
0.0
 11
81.45077804550695
 21
277.7477602027663
 31
0.0
  0
LINE
  5
319
  8
VISIBLE
 10
79.82069468580309
 20
280.26625742143
 30
0.0
 11
81.45077804550695
 21
277.7477602027663
 31
0.0
  0
LINE
  5
31A
  8
VISIBLE
 10
87.79593587823815
 20
285.4281880604924
 30
0.0
 11
79.82069468580309
 21
280.26625742143
 31
0.0
  0
LINE
  5
31B
  8
VISIBLE
 10
100.2768189264442
 20
274.6357111280639
 30
0.0
 11
87.79593587823815
 21
285.4281880604924
 31
0.0
  0
LINE
  5
31C
  8
VISIBLE
 10
100.2768189264442
 20
274.6357111280639
 30
0.0
 11
98.31455039327524
 21
272.3664596647536
 31
0.0
  0
LINE
  5
31D
  8
VISIBLE
 10
98.31455039327524
 20
272.3664596647536
 30
0.0
 11
107.391556246516
 21
264.5173855320783
 31
0.0
  0
LINE
  5
31E
  8
VISIBLE
 10
107.391556246516
 20
264.5173855320783
 30
0.0
 11
109.3538247796848
 21
266.7866369953884
 31
0.0
  0
LINE
  5
31F
  8
VISIBLE
 10
121.8347078278912
 20
255.99416006296
 30
0.0
 11
109.3538247796848
 21
266.7866369953884
 31
0.0
  0
LINE
  5
320
  8
VISIBLE
 10
124.8347078278912
 20
255.9941600629599
 30
0.0
 11
121.8347078278912
 21
255.99416006296
 31
0.0
  0
LINE
  5
321
  8
VISIBLE
 10
124.8347078278912
 20
246.8441600629599
 30
0.0
 11
124.8347078278912
 21
255.9941600629599
 31
0.0
  0
LINE
  5
322
  8
VISIBLE
 10
121.8347078278912
 20
246.8441600629599
 30
0.0
 11
124.8347078278912
 21
246.8441600629599
 31
0.0
  0
LINE
  5
323
  8
VISIBLE
 10
121.8347078278912
 20
236.8441600629599
 30
0.0
 11
121.8347078278912
 21
246.8441600629599
 31
0.0
  0
LINE
  5
324
  8
VISIBLE
 10
124.8347078278912
 20
236.8441600629599
 30
0.0
 11
121.8347078278912
 21
236.8441600629599
 31
0.0
  0
LINE
  5
325
  8
VISIBLE
 10
124.8347078278912
 20
227.6941600629599
 30
0.0
 11
124.8347078278912
 21
236.8441600629599
 31
0.0
  0
LINE
  5
326
  8
VISIBLE
 10
121.8347078278916
 20
227.6941600629599
 30
0.0
 11
124.8347078278912
 21
227.6941600629599
 31
0.0
  0
LINE
  5
327
  8
VISIBLE
 10
109.3538247796851
 20
216.9016831305311
 30
0.0
 11
121.8347078278916
 21
227.6941600629599
 31
0.0
  0
LINE
  5
328
  8
VISIBLE
 10
109.3538247796851
 20
216.9016831305311
 30
0.0
 11
107.391556246516
 21
219.1709345938415
 31
0.0
  0
LINE
  5
329
  8
VISIBLE
 10
107.391556246516
 20
219.1709345938415
 30
0.0
 11
98.31455039327554
 21
211.321860461166
 31
0.0
  0
LINE
  5
32A
  8
VISIBLE
 10
98.31455039327554
 20
211.321860461166
 30
0.0
 11
100.2768189264443
 21
209.0526089978557
 31
0.0
  0
LINE
  5
32B
  8
VISIBLE
 10
87.79593587823824
 20
198.2601320654275
 30
0.0
 11
100.2768189264443
 21
209.0526089978557
 31
0.0
  0
LINE
  5
32C
  8
VISIBLE
 10
79.82069468580309
 20
203.4220627044898
 30
0.0
 11
87.79593587823824
 21
198.2601320654275
 31
0.0
  0
LINE
  5
32D
  8
VISIBLE
 10
79.82069468580309
 20
203.4220627044898
 30
0.0
 11
81.45077804550696
 21
205.9405599231534
 31
0.0
  0
LINE
  5
32E
  8
VISIBLE
 10
81.45077804550696
 20
205.9405599231534
 30
0.0
 11
76.41378360817968
 21
209.2007266425612
 31
0.0
  0
LINE
  5
32F
  8
VISIBLE
 10
76.41378360817968
 20
209.2007266425612
 30
0.0
 11
74.78370024847591
 21
206.6822294238976
 31
0.0
  0
LINE
  5
330
  8
VISIBLE
 10
66.80845905604119
 20
211.8441600629597
 30
0.0
 11
74.78370024847591
 21
206.6822294238976
 31
0.0
  0
LINE
  5
331
  8
VISIBLE
 10
66.80845905604093
 20
217.8441600629589
 30
0.0
 11
66.80845905604119
 21
211.8441600629597
 31
0.0
  0
LINE
  5
332
  8
VISIBLE
 10
69.8084590560408
 20
217.8441600629589
 30
0.0
 11
66.80845905604093
 21
217.8441600629589
 31
0.0
  0
LINE
  5
333
  8
VISIBLE
 10
69.80845905604082
 20
227.8441600629597
 30
0.0
 11
69.8084590560408
 21
217.8441600629589
 31
0.0
  0
LINE
  5
334
  8
VISIBLE
 10
66.80845905604093
 20
227.8441600629593
 30
0.0
 11
69.80845905604082
 21
227.8441600629597
 31
0.0
  0
LINE
  5
335
  8
VISIBLE
 10
66.80845905604093
 20
255.8441600629635
 30
0.0
 11
66.80845905604093
 21
227.8441600629593
 31
0.0
  0
LINE
  5
336
  8
VISIBLE
 10
66.80845905604093
 20
255.8441600629635
 30
0.0
 11
69.80845905604082
 21
255.8441600629635
 31
0.0
  0
LINE
  5
337
  8
VISIBLE
 10
118.8347078278912
 20
240.5941600629599
 30
0.0
 11
119.8347078278912
 21
240.5941600629599
 31
0.0
  0
LINE
  5
338
  8
VISIBLE
 10
119.8347078278912
 20
243.0941600629599
 30
0.0
 11
119.8347078278912
 21
240.5941600629599
 31
0.0
  0
LINE
  5
339
  8
VISIBLE
 10
118.8347078278912
 20
243.0941600629599
 30
0.0
 11
119.8347078278912
 21
243.0941600629599
 31
0.0
  0
LINE
  5
33A
  8
VISIBLE
 10
118.8347078278912
 20
243.0941600629599
 30
0.0
 11
118.8347078278912
 21
240.5941600629599
 31
0.0
  0
LINE
  5
33B
  8
VISIBLE
 10
96.83470782789105
 20
252.9941600629597
 30
0.0
 11
96.83470782789105
 21
255.9941600629597
 31
0.0
  0
LINE
  5
33C
  8
VISIBLE
 10
96.83470782789105
 20
255.9941600629597
 30
0.0
 11
86.83470782789105
 21
255.9941600629597
 31
0.0
  0
LINE
  5
33D
  8
VISIBLE
 10
86.83470782789105
 20
255.9941600629597
 30
0.0
 11
86.83470782789105
 21
252.9941600629597
 31
0.0
  0
LINE
  5
33E
  8
VISIBLE
 10
86.83470782789105
 20
252.9941600629597
 30
0.0
 11
96.83470782789105
 21
252.9941600629597
 31
0.0
  0
ARC
  5
33F
  8
VISIBLE
 10
84.58932597397173
 20
235.4021266235626
 30
0.0
 40
0.5000000000000803
 50
317.5799979255626
 51
0.0000000002279822
  0
LINE
  5
340
  8
VISIBLE
 10
85.08932597396681
 20
235.4021266235646
 30
0.0
 11
85.08932597397188
 21
248.2862253502876
 31
0.0
  0
ARC
  5
341
  8
VISIBLE
 10
84.58932597397182
 20
248.2862253502865
 30
0.0
 40
0.5000000000000657
 50
0.0000000001205049
 51
42.42000207443852
  0
ARC
  5
342
  8
VISIBLE
 10
77.53932597396685
 20
241.8441759869246
 30
0.0000000000000004
 40
10.04999999999999
 50
42.42000207394128
 51
137.5799979260576
  0
ARC
  5
343
  8
VISIBLE
 10
70.48932597396563
 20
248.2862253502852
 30
0.0
 40
0.5000000000012558
 50
137.5799979257167
 51
180.0
  0
LINE
  5
344
  8
VISIBLE
 10
69.9893259739668
 20
235.4021266235647
 30
0.0
 11
69.98932597396437
 21
248.2862253502847
 31
0.0
  0
ARC
  5
345
  8
VISIBLE
 10
70.48932597396558
 20
235.4021266235642
 30
0.0
 40
0.5000000000012854
 50
180.0
 51
222.4200020742789
  0
ARC
  5
346
  8
VISIBLE
 10
77.53932597396683
 20
241.8441759869245
 30
-0.0000000000000004
 40
10.04999999999986
 50
222.4200020739408
 51
317.5799979260587
  0
LINE
  5
347
  8
VISIBLE
 10
78.96962922553605
 20
209.9288428285097
 30
0.0
 11
79.51299034543733
 21
210.7683419013976
 31
0.0
  0
LINE
  5
348
  8
VISIBLE
 10
78.96962922553605
 20
209.9288428285097
 30
0.0
 11
81.06837690775565
 21
208.5704400287564
 31
0.0
  0
LINE
  5
349
  8
VISIBLE
 10
81.61173802765693
 20
209.4099391016442
 30
0.0
 11
81.06837690775565
 21
208.5704400287564
 31
0.0
  0
LINE
  5
34A
  8
VISIBLE
 10
81.61173802765693
 20
209.4099391016442
 30
0.0
 11
79.51299034543733
 21
210.7683419013976
 31
0.0
  0
LINE
  5
34B
  8
VISIBLE
 10
81.06837690775573
 20
275.1178800971633
 30
0.0
 11
81.61173802765703
 21
274.2783810242754
 31
0.0
  0
LINE
  5
34C
  8
VISIBLE
 10
81.06837690775573
 20
275.1178800971633
 30
0.0
 11
78.96962922553605
 21
273.7594772974101
 31
0.0
  0
LINE
  5
34D
  8
VISIBLE
 10
78.96962922553605
 20
273.7594772974101
 30
0.0
 11
79.51299034543734
 21
272.9199782245222
 31
0.0
  0
LINE
  5
34E
  8
VISIBLE
 10
79.51299034543734
 20
272.9199782245222
 30
0.0
 11
81.61173802765703
 21
274.2783810242754
 31
0.0
  0
LINE
  5
34F
  8
VISIBLE
 10
71.80845905604092
 20
262.0941600629599
 30
0.0
 11
70.80845905604093
 21
262.0941600629599
 31
0.0
  0
LINE
  5
350
  8
VISIBLE
 10
70.80845905604092
 20
259.5941600629599
 30
0.0
 11
70.80845905604093
 21
262.0941600629599
 31
0.0
  0
LINE
  5
351
  8
VISIBLE
 10
71.80845905604092
 20
259.5941600629599
 30
0.0
 11
70.80845905604092
 21
259.5941600629599
 31
0.0
  0
LINE
  5
352
  8
VISIBLE
 10
71.80845905604092
 20
259.5941600629599
 30
0.0
 11
71.80845905604092
 21
262.0941600629599
 31
0.0
  0
LINE
  5
353
  8
VISIBLE
 10
99.9452633436809
 20
216.6980371019937
 30
0.0
 11
100.5993528547372
 21
215.941619947557
 31
0.0
  0
LINE
  5
354
  8
VISIBLE
 10
100.5993528547372
 20
215.941619947557
 30
0.0
 11
102.490395740829
 21
217.5768437251977
 31
0.0
  0
LINE
  5
355
  8
VISIBLE
 10
102.490395740829
 20
217.5768437251977
 30
0.0
 11
101.8363062297727
 21
218.3332608796345
 31
0.0
  0
LINE
  5
356
  8
VISIBLE
 10
101.8363062297727
 20
218.3332608796345
 30
0.0
 11
99.9452633436809
 21
216.6980371019937
 31
0.0
  0
LINE
  5
359
  8
VISIBLE
 10
19.00672734712123
 20
226.4221447487341
 30
0.0
 11
19.00672734712123
 21
229.4221447487342
 31
0.0
  0
LINE
  5
35A
  8
VISIBLE
 10
19.00672734712123
 20
229.4221447487342
 30
0.0
 11
16.00672734712141
 21
229.4221447487342
 31
0.0
  0
LINE
  5
35B
  8
VISIBLE
 10
16.0067273471214
 20
226.4221447487342
 30
0.0
 11
16.00672734712141
 21
229.4221447487342
 31
0.0
  0
LINE
  5
35C
  8
VISIBLE
 10
19.00672734712123
 20
226.4221447487341
 30
0.0
 11
16.0067273471214
 21
226.4221447487342
 31
0.0
  0
LINE
  5
35D
  8
VISIBLE
 10
10.93047857527135
 20
225.1721447487344
 30
0.0
 11
10.93047857527135
 21
222.6721447487344
 31
0.0
  0
LINE
  5
35E
  8
VISIBLE
 10
11.93047857527135
 20
222.6721447487344
 30
0.0
 11
10.93047857527135
 21
222.6721447487344
 31
0.0
  0
LINE
  5
35F
  8
VISIBLE
 10
11.93047857527136
 20
225.1721447487344
 30
0.0
 11
11.93047857527135
 21
222.6721447487344
 31
0.0
  0
LINE
  5
360
  8
VISIBLE
 10
11.93047857527136
 20
225.1721447487344
 30
0.0
 11
10.93047857527135
 21
225.1721447487344
 31
0.0
  0
LINE
  5
361
  8
VISIBLE
 10
19.00672734712123
 20
259.4221447487349
 30
0.0
 11
16.0067273471214
 21
259.4221447487348
 31
0.0
  0
LINE
  5
362
  8
VISIBLE
 10
16.0067273471214
 20
259.4221447487348
 30
0.0
 11
16.00672734712129
 21
256.4221447487347
 31
0.0
  0
LINE
  5
363
  8
VISIBLE
 10
19.00672734712123
 20
256.4221447487347
 30
0.0
 11
16.00672734712129
 21
256.4221447487347
 31
0.0
  0
LINE
  5
364
  8
VISIBLE
 10
19.00672734712123
 20
259.4221447487349
 30
0.0
 11
19.00672734712123
 21
256.4221447487347
 31
0.0
  0
LINE
  5
365
  8
VISIBLE
 10
40.7213723739676
 20
268.8246848641373
 30
0.0
 11
42.61241526005943
 21
267.1894610864966
 31
0.0
  0
LINE
  5
366
  8
VISIBLE
 10
40.06728286291133
 20
268.0682677097006
 30
0.0
 11
40.7213723739676
 21
268.8246848641373
 31
0.0
  0
LINE
  5
367
  8
VISIBLE
 10
41.95832574900314
 20
266.4330439320599
 30
0.0
 11
40.06728286291133
 21
268.0682677097006
 31
0.0
  0
LINE
  5
368
  8
VISIBLE
 10
42.61241526005943
 20
267.1894610864966
 30
0.0
 11
41.95832574900314
 21
266.4330439320599
 31
0.0
  0
LINE
  5
369
  8
VISIBLE
 10
9.930478575271245
 20
256.922144748738
 30
0.0
 11
9.930478575271248
 21
266.9221447487406
 31
0.0
  0
LINE
  5
36A
  8
VISIBLE
 10
9.930478575271248
 20
266.9221447487406
 30
0.0
 11
6.930478575271366
 21
266.9221447487384
 31
0.0
  0
LINE
  5
36B
  8
VISIBLE
 10
6.930478575271355
 20
272.9221447487348
 30
0.0
 11
6.930478575271366
 21
266.9221447487384
 31
0.0
  0
LINE
  5
36C
  8
VISIBLE
 10
14.90571976770624
 20
278.0840753877968
 30
0.0
 11
6.930478575271355
 21
272.9221447487348
 31
0.0
  0
LINE
  5
36D
  8
VISIBLE
 10
14.90571976770624
 20
278.0840753877968
 30
0.0
 11
16.53580312741011
 21
275.5655781691331
 31
0.0
  0
LINE
  5
36E
  8
VISIBLE
 10
16.53580312741011
 20
275.5655781691331
 30
0.0
 11
21.57279756473738
 21
278.8257448885408
 31
0.0
  0
LINE
  5
36F
  8
VISIBLE
 10
19.94271420503352
 20
281.3442421072045
 30
0.0
 11
21.57279756473738
 21
278.8257448885408
 31
0.0
  0
LINE
  5
370
  8
VISIBLE
 10
27.91795539746859
 20
286.5061727462669
 30
0.0
 11
19.94271420503352
 21
281.3442421072045
 31
0.0
  0
LINE
  5
371
  8
VISIBLE
 10
40.39883844567465
 20
275.7136958138385
 30
0.0
 11
27.91795539746859
 21
286.5061727462669
 31
0.0
  0
LINE
  5
372
  8
VISIBLE
 10
40.39883844567465
 20
275.7136958138385
 30
0.0
 11
38.43656991250568
 21
273.4444443505281
 31
0.0
  0
LINE
  5
373
  8
VISIBLE
 10
38.43656991250568
 20
273.4444443505281
 30
0.0
 11
47.51357576574646
 21
265.5953702178528
 31
0.0
  0
LINE
  5
374
  8
VISIBLE
 10
47.51357576574646
 20
265.5953702178528
 30
0.0
 11
49.47584429891528
 21
267.864621681163
 31
0.0
  0
LINE
  5
375
  8
VISIBLE
 10
61.95672734712166
 20
257.0721447487346
 30
0.0
 11
49.47584429891528
 21
267.864621681163
 31
0.0
  0
LINE
  5
376
  8
VISIBLE
 10
64.95672734712159
 20
257.0721447487344
 30
0.0
 11
61.95672734712166
 21
257.0721447487346
 31
0.0
  0
LINE
  5
377
  8
VISIBLE
 10
64.95672734712159
 20
247.9221447487344
 30
0.0
 11
64.95672734712159
 21
257.0721447487344
 31
0.0
  0
LINE
  5
378
  8
VISIBLE
 10
61.9567273471216
 20
247.9221447487344
 30
0.0
 11
64.95672734712159
 21
247.9221447487344
 31
0.0
  0
LINE
  5
379
  8
VISIBLE
 10
61.9567273471216
 20
237.9221447487344
 30
0.0
 11
61.9567273471216
 21
247.9221447487344
 31
0.0
  0
LINE
  5
37A
  8
VISIBLE
 10
64.9567273471216
 20
237.9221447487344
 30
0.0
 11
61.9567273471216
 21
237.9221447487344
 31
0.0
  0
LINE
  5
37B
  8
VISIBLE
 10
64.95672734712159
 20
228.7721447487344
 30
0.0
 11
64.9567273471216
 21
237.9221447487344
 31
0.0
  0
LINE
  5
37C
  8
VISIBLE
 10
61.95672734712198
 20
228.7721447487344
 30
0.0
 11
64.95672734712159
 21
228.7721447487344
 31
0.0
  0
LINE
  5
37D
  8
VISIBLE
 10
49.47584429891549
 20
217.9796678163056
 30
0.0
 11
61.95672734712198
 21
228.7721447487344
 31
0.0
  0
LINE
  5
37E
  8
VISIBLE
 10
49.47584429891549
 20
217.9796678163056
 30
0.0
 11
47.51357576574646
 21
220.2489192796161
 31
0.0
  0
LINE
  5
37F
  8
VISIBLE
 10
47.51357576574646
 20
220.2489192796161
 30
0.0
 11
38.43656991250597
 21
212.3998451469405
 31
0.0
  0
LINE
  5
380
  8
VISIBLE
 10
38.43656991250597
 20
212.3998451469405
 30
0.0
 11
40.39883844567478
 21
210.1305936836303
 31
0.0
  0
LINE
  5
381
  8
VISIBLE
 10
27.91795539746867
 20
199.3381167512021
 30
0.0
 11
40.39883844567478
 21
210.1305936836303
 31
0.0
  0
LINE
  5
382
  8
VISIBLE
 10
19.94271420503352
 20
204.5000473902643
 30
0.0
 11
27.91795539746867
 21
199.3381167512021
 31
0.0
  0
LINE
  5
383
  8
VISIBLE
 10
19.94271420503352
 20
204.5000473902643
 30
0.0
 11
21.5727975647374
 21
207.018544608928
 31
0.0
  0
LINE
  5
384
  8
VISIBLE
 10
21.5727975647374
 20
207.018544608928
 30
0.0
 11
16.53580312741012
 21
210.2787113283357
 31
0.0
  0
LINE
  5
385
  8
VISIBLE
 10
16.53580312741012
 20
210.2787113283357
 30
0.0
 11
14.90571976770634
 21
207.7602141096722
 31
0.0
  0
LINE
  5
386
  8
VISIBLE
 10
6.930478575271611
 20
212.9221447487342
 30
0.0
 11
14.90571976770634
 21
207.7602141096722
 31
0.0
  0
LINE
  5
387
  8
VISIBLE
 10
6.930478575271362
 20
218.9221447487335
 30
0.0
 11
6.930478575271611
 21
212.9221447487342
 31
0.0
  0
LINE
  5
388
  8
VISIBLE
 10
9.930478575271241
 20
218.9221447487335
 30
0.0
 11
6.930478575271362
 21
218.9221447487335
 31
0.0
  0
LINE
  5
389
  8
VISIBLE
 10
9.930478575271245
 20
228.9221447487343
 30
0.0
 11
9.930478575271241
 21
218.9221447487335
 31
0.0
  0
LINE
  5
38A
  8
VISIBLE
 10
6.930478575271362
 20
228.9221447487339
 30
0.0
 11
9.930478575271245
 21
228.9221447487343
 31
0.0
  0
LINE
  5
38B
  8
VISIBLE
 10
6.930478575271362
 20
256.922144748738
 30
0.0
 11
6.930478575271362
 21
228.9221447487339
 31
0.0
  0
LINE
  5
38C
  8
VISIBLE
 10
6.930478575271362
 20
256.922144748738
 30
0.0
 11
9.930478575271245
 21
256.922144748738
 31
0.0
  0
LINE
  5
38D
  8
VISIBLE
 10
58.9567273471216
 20
241.6721447487344
 30
0.0
 11
59.9567273471216
 21
241.6721447487344
 31
0.0
  0
LINE
  5
38E
  8
VISIBLE
 10
59.9567273471216
 20
244.1721447487344
 30
0.0
 11
59.9567273471216
 21
241.6721447487344
 31
0.0
  0
LINE
  5
38F
  8
VISIBLE
 10
58.9567273471216
 20
244.1721447487344
 30
0.0
 11
59.9567273471216
 21
244.1721447487344
 31
0.0
  0
LINE
  5
390
  8
VISIBLE
 10
58.9567273471216
 20
244.1721447487344
 30
0.0
 11
58.9567273471216
 21
241.6721447487344
 31
0.0
  0
LINE
  5
391
  8
VISIBLE
 10
36.95672734712149
 20
254.0721447487343
 30
0.0
 11
36.95672734712149
 21
257.0721447487343
 31
0.0
  0
LINE
  5
392
  8
VISIBLE
 10
36.95672734712149
 20
257.0721447487343
 30
0.0
 11
26.95672734712149
 21
257.0721447487343
 31
0.0
  0
LINE
  5
393
  8
VISIBLE
 10
26.95672734712149
 20
257.0721447487343
 30
0.0
 11
26.95672734712149
 21
254.0721447487343
 31
0.0
  0
LINE
  5
394
  8
VISIBLE
 10
26.95672734712149
 20
254.0721447487343
 30
0.0
 11
36.95672734712149
 21
254.0721447487343
 31
0.0
  0
ARC
  5
395
  8
VISIBLE
 10
24.71134549320215
 20
236.4801113093371
 30
0.0
 40
0.5000000000000803
 50
317.5799979255634
 51
0.0000000002279822
  0
LINE
  5
396
  8
VISIBLE
 10
25.21134549319724
 20
236.4801113093391
 30
0.0
 11
25.21134549320232
 21
249.3642100360621
 31
0.0
  0
ARC
  5
397
  8
VISIBLE
 10
24.71134549320225
 20
249.3642100360611
 30
0.0
 40
0.5000000000000657
 50
0.0000000001205049
 51
42.42000207443824
  0
ARC
  5
398
  8
VISIBLE
 10
17.66134549319728
 20
242.9221606726992
 30
0.0000000000000004
 40
10.04999999999999
 50
42.42000207394129
 51
137.5799979260576
  0
ARC
  5
399
  8
VISIBLE
 10
10.61134549319606
 20
249.3642100360597
 30
0.0
 40
0.5000000000012558
 50
137.5799979257173
 51
180.0
  0
LINE
  5
39A
  8
VISIBLE
 10
10.11134549319723
 20
236.4801113093392
 30
0.0
 11
10.11134549319481
 21
249.3642100360592
 31
0.0
  0
ARC
  5
39B
  8
VISIBLE
 10
10.61134549319601
 20
236.4801113093387
 30
0.0
 40
0.5000000000012854
 50
180.0
 51
222.4200020742792
  0
ARC
  5
39C
  8
VISIBLE
 10
17.66134549319726
 20
242.922160672699
 30
-0.0000000000000004
 40
10.04999999999986
 50
222.4200020739409
 51
317.5799979260586
  0
LINE
  5
39D
  8
VISIBLE
 10
19.09164874476648
 20
211.0068275142843
 30
0.0
 11
19.63500986466777
 21
211.8463265871721
 31
0.0
  0
LINE
  5
39E
  8
VISIBLE
 10
19.09164874476648
 20
211.0068275142843
 30
0.0
 11
21.19039642698608
 21
209.6484247145309
 31
0.0
  0
LINE
  5
39F
  8
VISIBLE
 10
21.73375754688736
 20
210.4879237874188
 30
0.0
 11
21.19039642698608
 21
209.6484247145309
 31
0.0
  0
LINE
  5
3A0
  8
VISIBLE
 10
21.73375754688736
 20
210.4879237874188
 30
0.0
 11
19.63500986466777
 21
211.8463265871721
 31
0.0
  0
LINE
  5
3A1
  8
VISIBLE
 10
21.19039642698617
 20
276.1958647829379
 30
0.0
 11
21.73375754688746
 21
275.3563657100499
 31
0.0
  0
LINE
  5
3A2
  8
VISIBLE
 10
21.19039642698617
 20
276.1958647829379
 30
0.0
 11
19.09164874476648
 21
274.8374619831846
 31
0.0
  0
LINE
  5
3A3
  8
VISIBLE
 10
19.09164874476648
 20
274.8374619831846
 30
0.0
 11
19.63500986466777
 21
273.9979629102967
 31
0.0
  0
LINE
  5
3A4
  8
VISIBLE
 10
19.63500986466777
 20
273.9979629102967
 30
0.0
 11
21.73375754688746
 21
275.3563657100499
 31
0.0
  0
LINE
  5
3A5
  8
VISIBLE
 10
11.93047857527135
 20
263.1721447487345
 30
0.0
 11
10.93047857527136
 21
263.1721447487345
 31
0.0
  0
LINE
  5
3A6
  8
VISIBLE
 10
10.93047857527135
 20
260.6721447487345
 30
0.0
 11
10.93047857527136
 21
263.1721447487345
 31
0.0
  0
LINE
  5
3A7
  8
VISIBLE
 10
11.93047857527135
 20
260.6721447487345
 30
0.0
 11
10.93047857527135
 21
260.6721447487345
 31
0.0
  0
LINE
  5
3A8
  8
VISIBLE
 10
11.93047857527135
 20
260.6721447487345
 30
0.0
 11
11.93047857527135
 21
263.1721447487345
 31
0.0
  0
LINE
  5
3A9
  8
VISIBLE
 10
40.06728286291133
 20
217.7760217877683
 30
0.0
 11
40.7213723739676
 21
217.0196046333316
 31
0.0
  0
LINE
  5
3AA
  8
VISIBLE
 10
40.7213723739676
 20
217.0196046333316
 30
0.0
 11
42.61241526005944
 21
218.6548284109722
 31
0.0
  0
LINE
  5
3AB
  8
VISIBLE
 10
42.61241526005944
 20
218.6548284109722
 30
0.0
 11
41.95832574900317
 21
219.411245565409
 31
0.0
  0
LINE
  5
3AC
  8
VISIBLE
 10
41.95832574900317
 20
219.411245565409
 30
0.0
 11
40.06728286291133
 21
217.7760217877683
 31
0.0
  0
LINE
  5
3AF
  8
VISIBLE
 10
259.5529212707445
 20
28.7125494174219
 30
0.0
 11
257.0529212707445
 21
28.7125494174219
 31
0.0
  0
LINE
  5
3B0
  8
VISIBLE
 10
257.0529212707445
 20
27.7125494174219
 30
0.0
 11
257.0529212707445
 21
28.7125494174219
 31
0.0
  0
LINE
  5
3B1
  8
VISIBLE
 10
259.5529212707445
 20
27.7125494174219
 30
0.0
 11
257.0529212707445
 21
27.7125494174219
 31
0.0
  0
LINE
  5
3B2
  8
VISIBLE
 10
259.5529212707445
 20
27.7125494174219
 30
0.0
 11
259.5529212707445
 21
28.7125494174219
 31
0.0
  0
LINE
  5
3B3
  8
VISIBLE
 10
259.5529212707445
 20
10.71254941742189
 30
0.0
 11
257.0529212707445
 21
10.71254941742189
 31
0.0
  0
LINE
  5
3B4
  8
VISIBLE
 10
257.0529212707445
 20
10.71254941742189
 30
0.0
 11
257.0529212707445
 21
9.712549417421894
 31
0.0
  0
LINE
  5
3B5
  8
VISIBLE
 10
259.5529212707445
 20
9.712549417421894
 30
0.0
 11
257.0529212707445
 21
9.712549417421894
 31
0.0
  0
LINE
  5
3B6
  8
VISIBLE
 10
259.5529212707445
 20
10.71254941742189
 30
0.0
 11
259.5529212707445
 21
9.712549417421894
 31
0.0
  0
LINE
  5
3B7
  8
VISIBLE
 10
250.8029212707445
 20
20.4625494174219
 30
0.0
 11
249.8029212707445
 21
20.4625494174219
 31
0.0
  0
LINE
  5
3B8
  8
VISIBLE
 10
249.8029212707445
 20
17.9625494174219
 30
0.0
 11
249.8029212707445
 21
20.4625494174219
 31
0.0
  0
LINE
  5
3B9
  8
VISIBLE
 10
250.8029212707445
 20
17.9625494174219
 30
0.0
 11
249.8029212707445
 21
17.9625494174219
 31
0.0
  0
LINE
  5
3BA
  8
VISIBLE
 10
250.8029212707445
 20
17.9625494174219
 30
0.0
 11
250.8029212707445
 21
20.4625494174219
 31
0.0
  0
LINE
  5
3BB
  8
VISIBLE
 10
247.8029212707445
 20
6.712549417421899
 30
0.0
 11
247.8029212707445
 21
16.2125494174219
 31
0.0
  0
LINE
  5
3BC
  8
VISIBLE
 10
244.8029212707445
 20
16.2125494174219
 30
0.0
 11
247.8029212707445
 21
16.2125494174219
 31
0.0
  0
LINE
  5
3BD
  8
VISIBLE
 10
244.8029212707445
 20
16.2125494174219
 30
0.0
 11
244.8029212707445
 21
22.2125494174219
 31
0.0
  0
LINE
  5
3BE
  8
VISIBLE
 10
244.8029212707445
 20
22.2125494174219
 30
0.0
 11
247.8029212707445
 21
22.2125494174219
 31
0.0
  0
LINE
  5
3BF
  8
VISIBLE
 10
247.8029212707445
 20
22.2125494174219
 30
0.0
 11
247.8029212707445
 21
31.7125494174219
 31
0.0
  0
LINE
  5
3C0
  8
VISIBLE
 10
268.8029212707445
 20
31.7125494174219
 30
0.0
 11
247.8029212707445
 21
31.7125494174219
 31
0.0
  0
LINE
  5
3C1
  8
VISIBLE
 10
268.8029212707445
 20
22.2125494174219
 30
0.0
 11
268.8029212707445
 21
31.7125494174219
 31
0.0
  0
LINE
  5
3C2
  8
VISIBLE
 10
271.8029212707445
 20
22.2125494174219
 30
0.0
 11
268.8029212707445
 21
22.2125494174219
 31
0.0
  0
LINE
  5
3C3
  8
VISIBLE
 10
271.8029212707445
 20
16.2125494174219
 30
0.0
 11
271.8029212707445
 21
22.2125494174219
 31
0.0
  0
LINE
  5
3C4
  8
VISIBLE
 10
271.8029212707445
 20
16.2125494174219
 30
0.0
 11
268.8029212707445
 21
16.2125494174219
 31
0.0
  0
LINE
  5
3C5
  8
VISIBLE
 10
268.8029212707445
 20
6.712549417421895
 30
0.0
 11
268.8029212707445
 21
16.2125494174219
 31
0.0
  0
LINE
  5
3C6
  8
VISIBLE
 10
268.8029212707445
 20
6.712549417421895
 30
0.0
 11
247.8029212707445
 21
6.712549417421899
 31
0.0
  0
LINE
  5
3C7
  8
VISIBLE
 10
266.8029212707445
 20
17.9625494174219
 30
0.0
 11
266.8029212707445
 21
20.4625494174219
 31
0.0
  0
LINE
  5
3C8
  8
VISIBLE
 10
265.8029212707445
 20
20.4625494174219
 30
0.0
 11
266.8029212707445
 21
20.4625494174219
 31
0.0
  0
LINE
  5
3C9
  8
VISIBLE
 10
265.8029212707445
 20
17.9625494174219
 30
0.0
 11
265.8029212707445
 21
20.4625494174219
 31
0.0
  0
LINE
  5
3CA
  8
VISIBLE
 10
265.8029212707445
 20
17.9625494174219
 30
0.0
 11
266.8029212707445
 21
17.9625494174219
 31
0.0
  0
LINE
  5
3CD
  8
VISIBLE
 10
207.3448430062631
 20
193.8898713355838
 30
0.0
 11
204.8448430062631
 21
193.8898713355838
 31
0.0
  0
LINE
  5
3CE
  8
VISIBLE
 10
204.8448430062631
 20
192.8898713355838
 30
0.0
 11
204.8448430062631
 21
193.8898713355838
 31
0.0
  0
LINE
  5
3CF
  8
VISIBLE
 10
207.3448430062631
 20
192.8898713355838
 30
0.0
 11
204.8448430062631
 21
192.8898713355838
 31
0.0
  0
LINE
  5
3D0
  8
VISIBLE
 10
207.3448430062631
 20
192.8898713355838
 30
0.0
 11
207.3448430062631
 21
193.8898713355838
 31
0.0
  0
LINE
  5
3D1
  8
VISIBLE
 10
207.3448430062631
 20
175.8898713355838
 30
0.0
 11
204.8448430062631
 21
175.8898713355838
 31
0.0
  0
LINE
  5
3D2
  8
VISIBLE
 10
204.8448430062631
 20
175.8898713355838
 30
0.0
 11
204.8448430062631
 21
174.8898713355838
 31
0.0
  0
LINE
  5
3D3
  8
VISIBLE
 10
207.3448430062631
 20
174.8898713355838
 30
0.0
 11
204.8448430062631
 21
174.8898713355838
 31
0.0
  0
LINE
  5
3D4
  8
VISIBLE
 10
207.3448430062631
 20
175.8898713355838
 30
0.0
 11
207.3448430062631
 21
174.8898713355838
 31
0.0
  0
LINE
  5
3D5
  8
VISIBLE
 10
198.5948430062631
 20
185.6398713355838
 30
0.0
 11
197.5948430062631
 21
185.6398713355838
 31
0.0
  0
LINE
  5
3D6
  8
VISIBLE
 10
197.5948430062631
 20
183.1398713355838
 30
0.0
 11
197.5948430062631
 21
185.6398713355838
 31
0.0
  0
LINE
  5
3D7
  8
VISIBLE
 10
198.5948430062631
 20
183.1398713355838
 30
0.0
 11
197.5948430062631
 21
183.1398713355838
 31
0.0
  0
LINE
  5
3D8
  8
VISIBLE
 10
198.5948430062631
 20
183.1398713355838
 30
0.0
 11
198.5948430062631
 21
185.6398713355838
 31
0.0
  0
LINE
  5
3D9
  8
VISIBLE
 10
195.5948430062631
 20
171.8898713355838
 30
0.0
 11
195.5948430062631
 21
181.3898713355838
 31
0.0
  0
LINE
  5
3DA
  8
VISIBLE
 10
192.5948430062631
 20
181.3898713355838
 30
0.0
 11
195.5948430062631
 21
181.3898713355838
 31
0.0
  0
LINE
  5
3DB
  8
VISIBLE
 10
192.5948430062631
 20
181.3898713355838
 30
0.0
 11
192.5948430062631
 21
187.3898713355838
 31
0.0
  0
LINE
  5
3DC
  8
VISIBLE
 10
192.5948430062631
 20
187.3898713355838
 30
0.0
 11
195.5948430062631
 21
187.3898713355838
 31
0.0
  0
LINE
  5
3DD
  8
VISIBLE
 10
195.5948430062631
 20
187.3898713355838
 30
0.0
 11
195.5948430062631
 21
196.8898713355838
 31
0.0
  0
LINE
  5
3DE
  8
VISIBLE
 10
216.5948430062631
 20
196.8898713355838
 30
0.0
 11
195.5948430062631
 21
196.8898713355838
 31
0.0
  0
LINE
  5
3DF
  8
VISIBLE
 10
216.5948430062631
 20
187.3898713355838
 30
0.0
 11
216.5948430062631
 21
196.8898713355838
 31
0.0
  0
LINE
  5
3E0
  8
VISIBLE
 10
219.5948430062631
 20
187.3898713355838
 30
0.0
 11
216.5948430062631
 21
187.3898713355838
 31
0.0
  0
LINE
  5
3E1
  8
VISIBLE
 10
219.5948430062631
 20
181.3898713355838
 30
0.0
 11
219.5948430062631
 21
187.3898713355838
 31
0.0
  0
LINE
  5
3E2
  8
VISIBLE
 10
219.5948430062631
 20
181.3898713355838
 30
0.0
 11
216.5948430062631
 21
181.3898713355838
 31
0.0
  0
LINE
  5
3E3
  8
VISIBLE
 10
216.5948430062631
 20
171.8898713355838
 30
0.0
 11
216.5948430062631
 21
181.3898713355838
 31
0.0
  0
LINE
  5
3E4
  8
VISIBLE
 10
216.5948430062631
 20
171.8898713355838
 30
0.0
 11
195.5948430062631
 21
171.8898713355838
 31
0.0
  0
LINE
  5
3E5
  8
VISIBLE
 10
214.5948430062631
 20
183.1398713355838
 30
0.0
 11
214.5948430062631
 21
185.6398713355838
 31
0.0
  0
LINE
  5
3E6
  8
VISIBLE
 10
213.5948430062631
 20
185.6398713355838
 30
0.0
 11
214.5948430062631
 21
185.6398713355838
 31
0.0
  0
LINE
  5
3E7
  8
VISIBLE
 10
213.5948430062631
 20
183.1398713355838
 30
0.0
 11
213.5948430062631
 21
185.6398713355838
 31
0.0
  0
LINE
  5
3E8
  8
VISIBLE
 10
213.5948430062631
 20
183.1398713355838
 30
0.0
 11
214.5948430062631
 21
183.1398713355838
 31
0.0
  0
LINE
  5
3EB
  8
VISIBLE
 10
74.01869914044629
 20
133.7000894080178
 30
0.0
 11
71.51869914044629
 21
133.7000894080178
 31
0.0
  0
LINE
  5
3EC
  8
VISIBLE
 10
71.51869914044629
 20
132.7000894080178
 30
0.0
 11
71.51869914044629
 21
133.7000894080178
 31
0.0
  0
LINE
  5
3ED
  8
VISIBLE
 10
74.01869914044629
 20
132.7000894080178
 30
0.0
 11
71.51869914044629
 21
132.7000894080178
 31
0.0
  0
LINE
  5
3EE
  8
VISIBLE
 10
74.01869914044629
 20
132.7000894080178
 30
0.0
 11
74.01869914044629
 21
133.7000894080178
 31
0.0
  0
LINE
  5
3EF
  8
VISIBLE
 10
74.01869914044629
 20
115.7000894080178
 30
0.0
 11
71.51869914044629
 21
115.7000894080178
 31
0.0
  0
LINE
  5
3F0
  8
VISIBLE
 10
71.51869914044629
 20
115.7000894080178
 30
0.0
 11
71.51869914044629
 21
114.7000894080178
 31
0.0
  0
LINE
  5
3F1
  8
VISIBLE
 10
74.01869914044629
 20
114.7000894080178
 30
0.0
 11
71.51869914044629
 21
114.7000894080178
 31
0.0
  0
LINE
  5
3F2
  8
VISIBLE
 10
74.01869914044629
 20
115.7000894080178
 30
0.0
 11
74.01869914044629
 21
114.7000894080178
 31
0.0
  0
LINE
  5
3F3
  8
VISIBLE
 10
65.26869914044629
 20
125.4500894080178
 30
0.0
 11
64.26869914044629
 21
125.4500894080178
 31
0.0
  0
LINE
  5
3F4
  8
VISIBLE
 10
64.26869914044629
 20
122.9500894080178
 30
0.0
 11
64.26869914044629
 21
125.4500894080178
 31
0.0
  0
LINE
  5
3F5
  8
VISIBLE
 10
65.26869914044629
 20
122.9500894080178
 30
0.0
 11
64.26869914044629
 21
122.9500894080178
 31
0.0
  0
LINE
  5
3F6
  8
VISIBLE
 10
65.26869914044629
 20
122.9500894080178
 30
0.0
 11
65.26869914044629
 21
125.4500894080178
 31
0.0
  0
LINE
  5
3F7
  8
VISIBLE
 10
62.26869914044629
 20
111.7000894080178
 30
0.0
 11
62.26869914044629
 21
121.2000894080178
 31
0.0
  0
LINE
  5
3F8
  8
VISIBLE
 10
59.26869914044629
 20
121.2000894080178
 30
0.0
 11
62.26869914044629
 21
121.2000894080178
 31
0.0
  0
LINE
  5
3F9
  8
VISIBLE
 10
59.26869914044629
 20
121.2000894080178
 30
0.0
 11
59.26869914044629
 21
127.2000894080178
 31
0.0
  0
LINE
  5
3FA
  8
VISIBLE
 10
59.26869914044629
 20
127.2000894080178
 30
0.0
 11
62.26869914044629
 21
127.2000894080178
 31
0.0
  0
LINE
  5
3FB
  8
VISIBLE
 10
62.26869914044629
 20
127.2000894080178
 30
0.0
 11
62.26869914044629
 21
136.7000894080178
 31
0.0
  0
LINE
  5
3FC
  8
VISIBLE
 10
83.26869914044629
 20
136.7000894080178
 30
0.0
 11
62.26869914044629
 21
136.7000894080178
 31
0.0
  0
LINE
  5
3FD
  8
VISIBLE
 10
83.26869914044629
 20
127.2000894080178
 30
0.0
 11
83.26869914044629
 21
136.7000894080178
 31
0.0
  0
LINE
  5
3FE
  8
VISIBLE
 10
86.26869914044629
 20
127.2000894080178
 30
0.0
 11
83.26869914044629
 21
127.2000894080178
 31
0.0
  0
LINE
  5
3FF
  8
VISIBLE
 10
86.26869914044629
 20
121.2000894080178
 30
0.0
 11
86.26869914044629
 21
127.2000894080178
 31
0.0
  0
LINE
  5
400
  8
VISIBLE
 10
86.26869914044629
 20
121.2000894080178
 30
0.0
 11
83.26869914044629
 21
121.2000894080178
 31
0.0
  0
LINE
  5
401
  8
VISIBLE
 10
83.26869914044629
 20
111.7000894080178
 30
0.0
 11
83.26869914044629
 21
121.2000894080178
 31
0.0
  0
LINE
  5
402
  8
VISIBLE
 10
83.26869914044629
 20
111.7000894080178
 30
0.0
 11
62.26869914044629
 21
111.7000894080178
 31
0.0
  0
LINE
  5
403
  8
VISIBLE
 10
81.26869914044629
 20
122.9500894080178
 30
0.0
 11
81.26869914044629
 21
125.4500894080178
 31
0.0
  0
LINE
  5
404
  8
VISIBLE
 10
80.26869914044629
 20
125.4500894080178
 30
0.0
 11
81.26869914044629
 21
125.4500894080178
 31
0.0
  0
LINE
  5
405
  8
VISIBLE
 10
80.26869914044629
 20
122.9500894080178
 30
0.0
 11
80.26869914044629
 21
125.4500894080178
 31
0.0
  0
LINE
  5
406
  8
VISIBLE
 10
80.26869914044629
 20
122.9500894080178
 30
0.0
 11
81.26869914044629
 21
122.9500894080178
 31
0.0
  0
LINE
  5
409
  8
VISIBLE
 10
73.13512430964535
 20
193.9606461663206
 30
0.0
 11
70.63512430964535
 21
193.9606461663206
 31
0.0
  0
LINE
  5
40A
  8
VISIBLE
 10
70.63512430964535
 20
192.9606461663206
 30
0.0
 11
70.63512430964535
 21
193.9606461663206
 31
0.0
  0
LINE
  5
40B
  8
VISIBLE
 10
73.13512430964535
 20
192.9606461663206
 30
0.0
 11
70.63512430964535
 21
192.9606461663206
 31
0.0
  0
LINE
  5
40C
  8
VISIBLE
 10
73.13512430964535
 20
192.9606461663206
 30
0.0
 11
73.13512430964535
 21
193.9606461663206
 31
0.0
  0
LINE
  5
40D
  8
VISIBLE
 10
73.13512430964535
 20
175.9606461663206
 30
0.0
 11
70.63512430964535
 21
175.9606461663206
 31
0.0
  0
LINE
  5
40E
  8
VISIBLE
 10
70.63512430964535
 20
175.9606461663206
 30
0.0
 11
70.63512430964535
 21
174.9606461663206
 31
0.0
  0
LINE
  5
40F
  8
VISIBLE
 10
73.13512430964535
 20
174.9606461663206
 30
0.0
 11
70.63512430964535
 21
174.9606461663206
 31
0.0
  0
LINE
  5
410
  8
VISIBLE
 10
73.13512430964535
 20
175.9606461663206
 30
0.0
 11
73.13512430964535
 21
174.9606461663206
 31
0.0
  0
LINE
  5
411
  8
VISIBLE
 10
64.38512430964535
 20
185.7106461663206
 30
0.0
 11
63.38512430964535
 21
185.7106461663206
 31
0.0
  0
LINE
  5
412
  8
VISIBLE
 10
63.38512430964535
 20
183.2106461663206
 30
0.0
 11
63.38512430964535
 21
185.7106461663206
 31
0.0
  0
LINE
  5
413
  8
VISIBLE
 10
64.38512430964535
 20
183.2106461663206
 30
0.0
 11
63.38512430964535
 21
183.2106461663206
 31
0.0
  0
LINE
  5
414
  8
VISIBLE
 10
64.38512430964535
 20
183.2106461663206
 30
0.0
 11
64.38512430964535
 21
185.7106461663206
 31
0.0
  0
LINE
  5
415
  8
VISIBLE
 10
61.38512430964535
 20
171.9606461663206
 30
0.0
 11
61.38512430964535
 21
181.4606461663206
 31
0.0
  0
LINE
  5
416
  8
VISIBLE
 10
58.38512430964535
 20
181.4606461663206
 30
0.0
 11
61.38512430964535
 21
181.4606461663206
 31
0.0
  0
LINE
  5
417
  8
VISIBLE
 10
58.38512430964535
 20
181.4606461663206
 30
0.0
 11
58.38512430964535
 21
187.4606461663206
 31
0.0
  0
LINE
  5
418
  8
VISIBLE
 10
58.38512430964535
 20
187.4606461663206
 30
0.0
 11
61.38512430964535
 21
187.4606461663206
 31
0.0
  0
LINE
  5
419
  8
VISIBLE
 10
61.38512430964535
 20
187.4606461663206
 30
0.0
 11
61.38512430964535
 21
196.9606461663206
 31
0.0
  0
LINE
  5
41A
  8
VISIBLE
 10
82.38512430964535
 20
196.9606461663206
 30
0.0
 11
61.38512430964535
 21
196.9606461663206
 31
0.0
  0
LINE
  5
41B
  8
VISIBLE
 10
82.38512430964535
 20
187.4606461663206
 30
0.0
 11
82.38512430964535
 21
196.9606461663206
 31
0.0
  0
LINE
  5
41C
  8
VISIBLE
 10
85.38512430964535
 20
187.4606461663206
 30
0.0
 11
82.38512430964535
 21
187.4606461663206
 31
0.0
  0
LINE
  5
41D
  8
VISIBLE
 10
85.38512430964535
 20
181.4606461663206
 30
0.0
 11
85.38512430964535
 21
187.4606461663206
 31
0.0
  0
LINE
  5
41E
  8
VISIBLE
 10
85.38512430964535
 20
181.4606461663206
 30
0.0
 11
82.38512430964535
 21
181.4606461663206
 31
0.0
  0
LINE
  5
41F
  8
VISIBLE
 10
82.38512430964535
 20
171.9606461663206
 30
0.0
 11
82.38512430964535
 21
181.4606461663206
 31
0.0
  0
LINE
  5
420
  8
VISIBLE
 10
82.38512430964535
 20
171.9606461663206
 30
0.0
 11
61.38512430964535
 21
171.9606461663206
 31
0.0
  0
LINE
  5
421
  8
VISIBLE
 10
80.38512430964535
 20
183.2106461663206
 30
0.0
 11
80.38512430964535
 21
185.7106461663206
 31
0.0
  0
LINE
  5
422
  8
VISIBLE
 10
79.38512430964535
 20
185.7106461663206
 30
0.0
 11
80.38512430964535
 21
185.7106461663206
 31
0.0
  0
LINE
  5
423
  8
VISIBLE
 10
79.38512430964535
 20
183.2106461663206
 30
0.0
 11
79.38512430964535
 21
185.7106461663206
 31
0.0
  0
LINE
  5
424
  8
VISIBLE
 10
79.38512430964535
 20
183.2106461663206
 30
0.0
 11
80.38512430964535
 21
183.2106461663206
 31
0.0
  0
LINE
  5
427
  8
VISIBLE
 10
129.917479106965
 20
56.67601237438178
 30
0.0
 11
128.917479106965
 21
56.67601237438178
 31
0.0
  0
LINE
  5
428
  8
VISIBLE
 10
153.9174791069649
 20
104.4260123743818
 30
0.0
 11
153.9174791069649
 21
105.4260123743818
 31
0.0
  0
LINE
  5
429
  8
VISIBLE
 10
241.867479106965
 20
24.42601237438176
 30
0.0
 11
241.8674791069649
 21
3.426012374381756
 31
0.0
  0
ARC
  5
42A
  8
VISIBLE
 10
146.417479106965
 20
40.92601237438178
 30
0.0
 40
7.5
 50
90.0
 51
270.0
  0
LINE
  5
42B
  8
VISIBLE
 10
193.917479106965
 20
56.67601237438178
 30
0.0
 11
193.917479106965
 21
54.17601237438178
 31
0.0
  0
LINE
  5
42C
  8
VISIBLE
 10
151.4174791069649
 20
6.426012374381777
 30
0.0
 11
153.9174791069649
 21
6.426012374381777
 31
0.0
  0
LINE
  5
42D
  8
VISIBLE
 10
153.9174791069649
 20
105.4260123743818
 30
0.0
 11
151.4174791069649
 21
105.4260123743818
 31
0.0
  0
LINE
  5
42E
  8
VISIBLE
 10
151.4174791069649
 20
105.4260123743818
 30
0.0
 11
151.4174791069649
 21
104.4260123743818
 31
0.0
  0
LINE
  5
42F
  8
VISIBLE
 10
151.4174791069649
 20
104.4260123743818
 30
0.0
 11
153.9174791069649
 21
104.4260123743818
 31
0.0
  0
LINE
  5
430
  8
VISIBLE
 10
241.8674791069649
 20
3.426012374381756
 30
0.0
 11
178.9174791069649
 21
3.426012374381763
 31
0.0
  0
LINE
  5
431
  8
VISIBLE
 10
178.9174791069649
 20
3.426012374381763
 30
0.0
 11
178.9174791069649
 21
0.4260123743817701
 31
0.0
  0
LINE
  5
432
  8
VISIBLE
 10
178.9174791069649
 20
0.4260123743817701
 30
0.0
 11
166.4174791069649
 21
0.4260123743817701
 31
0.0
  0
LINE
  5
433
  8
VISIBLE
 10
166.4174791069649
 20
0.4260123743817701
 30
0.0
 11
166.4174791069649
 21
3.426012374381763
 31
0.0
  0
LINE
  5
434
  8
VISIBLE
 10
166.4174791069649
 20
3.426012374381763
 30
0.0
 11
143.9174791069649
 21
3.42601237438177
 31
0.0
  0
LINE
  5
435
  8
VISIBLE
 10
143.9174791069649
 20
3.42601237438177
 30
0.0
 11
143.9174791069649
 21
0.4260123743817701
 31
0.0
  0
LINE
  5
436
  8
VISIBLE
 10
143.9174791069649
 20
0.4260123743817701
 30
0.0
 11
123.917479106965
 21
0.4260123743817701
 31
0.0
  0
LINE
  5
437
  8
VISIBLE
 10
123.917479106965
 20
0.4260123743817701
 30
0.0
 11
123.917479106965
 21
24.42601237438178
 31
0.0
  0
LINE
  5
438
  8
VISIBLE
 10
123.917479106965
 20
24.42601237438178
 30
0.0
 11
126.917479106965
 21
24.42601237438178
 31
0.0
  0
LINE
  5
439
  8
VISIBLE
 10
126.917479106965
 20
24.42601237438178
 30
0.0
 11
126.917479106965
 21
40.42601237438178
 31
0.0
  0
LINE
  5
43A
  8
VISIBLE
 10
126.917479106965
 20
40.42601237438178
 30
0.0
 11
123.917479106965
 21
40.42601237438178
 31
0.0
  0
LINE
  5
43B
  8
VISIBLE
 10
123.917479106965
 20
40.42601237438178
 30
0.0
 11
123.917479106965
 21
70.42601237438178
 31
0.0
  0
LINE
  5
43C
  8
VISIBLE
 10
123.917479106965
 20
70.42601237438178
 30
0.0
 11
126.917479106965
 21
70.42601237438178
 31
0.0
  0
LINE
  5
43D
  8
VISIBLE
 10
126.917479106965
 20
70.42601237438178
 30
0.0
 11
126.917479106965
 21
86.42601237438178
 31
0.0
  0
LINE
  5
43E
  8
VISIBLE
 10
126.917479106965
 20
86.42601237438178
 30
0.0
 11
123.917479106965
 21
86.42601237438178
 31
0.0
  0
LINE
  5
43F
  8
VISIBLE
 10
123.917479106965
 20
86.42601237438178
 30
0.0
 11
123.917479106965
 21
110.4260123743818
 31
0.0
  0
LINE
  5
440
  8
VISIBLE
 10
123.917479106965
 20
110.4260123743818
 30
0.0
 11
143.9174791069649
 21
110.4260123743818
 31
0.0
  0
LINE
  5
441
  8
VISIBLE
 10
143.9174791069649
 20
110.4260123743818
 30
0.0
 11
143.9174791069649
 21
107.4260123743818
 31
0.0
  0
LINE
  5
442
  8
VISIBLE
 10
143.9174791069649
 20
107.4260123743818
 30
0.0
 11
166.417479106965
 21
107.4260123743818
 31
0.0
  0
LINE
  5
443
  8
VISIBLE
 10
166.417479106965
 20
107.4260123743818
 30
0.0
 11
166.4174791069649
 21
110.4260123743818
 31
0.0
  0
LINE
  5
444
  8
VISIBLE
 10
166.4174791069649
 20
110.4260123743818
 30
0.0
 11
178.917479106965
 21
110.4260123743818
 31
0.0
  0
LINE
  5
445
  8
VISIBLE
 10
178.917479106965
 20
110.4260123743818
 30
0.0
 11
178.917479106965
 21
107.4260123743818
 31
0.0
  0
LINE
  5
446
  8
VISIBLE
 10
178.917479106965
 20
107.4260123743818
 30
0.0
 11
241.867479106965
 21
107.4260123743818
 31
0.0
  0
LINE
  5
447
  8
VISIBLE
 10
241.867479106965
 20
107.4260123743818
 30
0.0
 11
241.867479106965
 21
86.42601237438177
 31
0.0
  0
LINE
  5
448
  8
VISIBLE
 10
241.867479106965
 20
86.42601237438177
 30
0.0
 11
195.917479106965
 21
86.42601237438177
 31
0.0
  0
LINE
  5
449
  8
VISIBLE
 10
195.917479106965
 20
86.42601237438177
 30
0.0
 11
195.9174791069649
 21
70.42601237438177
 31
0.0
  0
LINE
  5
44A
  8
VISIBLE
 10
195.9174791069649
 20
70.42601237438177
 30
0.0
 11
198.917479106965
 21
70.42601237438177
 31
0.0
  0
LINE
  5
44B
  8
VISIBLE
 10
198.917479106965
 20
70.42601237438177
 30
0.0
 11
198.917479106965
 21
40.42601237438177
 31
0.0
  0
LINE
  5
44C
  8
VISIBLE
 10
198.917479106965
 20
40.42601237438177
 30
0.0
 11
195.9174791069649
 21
40.42601237438177
 31
0.0
  0
LINE
  5
44D
  8
VISIBLE
 10
195.9174791069649
 20
40.42601237438177
 30
0.0
 11
195.9174791069649
 21
24.42601237438177
 31
0.0
  0
LINE
  5
44E
  8
VISIBLE
 10
195.9174791069649
 20
24.42601237438177
 30
0.0
 11
241.867479106965
 21
24.42601237438176
 31
0.0
  0
LINE
  5
44F
  8
VISIBLE
 10
146.417479106965
 20
33.42601237438177
 30
0.0
 11
176.417479106965
 21
33.42601237438177
 31
0.0
  0
ARC
  5
450
  8
VISIBLE
 10
176.417479106965
 20
40.92601237438177
 30
0.0
 40
7.5
 50
270.0
 51
90.0
  0
LINE
  5
451
  8
VISIBLE
 10
176.417479106965
 20
48.42601237438177
 30
0.0
 11
146.417479106965
 21
48.42601237438177
 31
0.0
  0
LINE
  5
452
  8
VISIBLE
 10
192.917479106965
 20
56.67601237438178
 30
0.0
 11
193.917479106965
 21
56.67601237438178
 31
0.0
  0
LINE
  5
453
  8
VISIBLE
 10
192.917479106965
 20
54.17601237438178
 30
0.0
 11
192.917479106965
 21
56.67601237438178
 31
0.0
  0
LINE
  5
454
  8
VISIBLE
 10
193.917479106965
 20
54.17601237438178
 30
0.0
 11
192.917479106965
 21
54.17601237438178
 31
0.0
  0
LINE
  5
455
  8
VISIBLE
 10
151.4174791069649
 20
5.426012374381777
 30
0.0
 11
151.4174791069649
 21
6.426012374381777
 31
0.0
  0
LINE
  5
456
  8
VISIBLE
 10
153.9174791069649
 20
5.426012374381777
 30
0.0
 11
151.4174791069649
 21
5.426012374381777
 31
0.0
  0
LINE
  5
457
  8
VISIBLE
 10
153.9174791069649
 20
6.426012374381777
 30
0.0
 11
153.9174791069649
 21
5.426012374381777
 31
0.0
  0
LINE
  5
458
  8
VISIBLE
 10
128.917479106965
 20
56.67601237438178
 30
0.0
 11
128.917479106965
 21
54.17601237438178
 31
0.0
  0
LINE
  5
459
  8
VISIBLE
 10
129.917479106965
 20
54.17601237438177
 30
0.0
 11
128.917479106965
 21
54.17601237438178
 31
0.0
  0
LINE
  5
45A
  8
VISIBLE
 10
129.917479106965
 20
56.67601237438178
 30
0.0
 11
129.917479106965
 21
54.17601237438177
 31
0.0
  0
ENDSEC
  0
EOF
